Cifra Club

Ligação de Emergência

Maiara e Maraisa

Cifra: Principal (violão e guitarra)
Tom: Fm (forma dos acordes no tom de Em) Capotraste na 1ª casa
[Intro] C  D9 

E|----------------------------------------------------|
B|----------------------------------------------------|
G|-------2-2/4-----4-4-4-2-2-2------------------------|
D|-2-4-5-------2~--------------5-5-5--2/4-2p0---------|
A|----------------------------------------------------|
E|----------------------------------------------------|

[Primeira Parte]

 Em
Poxa
   D9
Parece que cê adivinha
                 Bm7              
Quando eu tô de boa 
        C
Não tá certo isso que você
Está fazendo comigo
       D9(11)
Logo agora que o meu coração 
                        Em   D9
Está voltando para os trilhos

[Pré-Refrão]

                C                 D9
Você liga insistindo querendo me vê 
                       Bm7
Mas como é que eu te atendo
                                          Em
Se eu tô com outro alguém tentando te esquecer  
 C                       D9
Você me atrapalha desse jeito 
                  Em  
Tô sem clima pro beijo 

[Refrão]
 
                         C
Olha o meu coração mentiroso
                         D9
Inventando mais uma emergência 
                           Bm7
Dispensando mais um beijo novo 
                          Em
Pra atender sua antiga carência

                         C
Olha o meu coração mentiroso
                         D9
Inventando mais uma emergência 
                           Bm7
Dispensando mais um beijo novo 
                          Em
Pra atender sua antiga carência 

    C
Paciência
       D9        
Beijo novo vai ter que esperar
           Em
Ligação de emergência

[Solo] C  D9  Bm7  Em

E|----------------------------------------------------|
B|-8p7-----8/10-10/12---------------------------------|
G|-----9p7------------9~--------2-4-2/4-2p0-----------|
D|------------------------2-4-5-------------2/4-------|
A|----------------------------------------------------|
E|----------------------------------------------------|

[Pré-Refrão]

                C                 D9
Você liga insistindo querendo me vê 
                       Bm7
Mas como é que eu te atendo
                                          Em
Se eu tô com outro alguém tentando te esquecer  
 C                       D9
Você me atrapalha desse jeito 
                  Em   D9
Tô sem clima pro beijo 

[Refrão]
 
                         C
Olha o meu coração mentiroso
                         D9
Inventando mais uma emergência 
                           Bm7
Dispensando mais um beijo novo 
                          Em
Pra atender sua antiga carência

                         C
Olha o meu coração mentiroso
                         D9
Inventando mais uma emergência 
                           Bm7
Dispensando mais um beijo novo 
                          Em
Pra atender sua antiga carência 

    C
Paciência
       D9        
Beijo novo vai ter que esperar
           Em
Ligação de emergência

    C
Paciência
       D9        
Beijo novo vai ter que esperar
                     
Ligação de emergência

[Final]

                  Em
E|----------------0-----------------------------------|
B|----------------0-----------------------------------|
G|-------2-2/4----0-----------------------------------|
D|-2-4-5-------2--2-----------------------------------|
A|----------------2-----------------------------------|
E|----------------0-----------------------------------|
exibições 2.672
Acordes para:
    Composição: Gabriel Agra / Philipe Pancadinha / Thales Lessa / Victor Hugo Colaboração e revisão:
    • Thiago Almeida

    0 comentários

    mostrar mais comentários

    Conseguiu tocar?

    1 tocaram 1 ainda não

    Grave um vídeo tocando Ligação de Emergência e mande pra gente!

    00:00 / 00:00
    outros vídeos desta música
    repetir qualidade Automático
    Outros vídeos desta música
    00:00 / 00:00
    Automático
    OK