Cifra Club

Localização (part. Villa Baggage)

Maiara e Maraisa

Cifra: Principal
exibições 28.296
Tom: A (com acordes na forma de G) Capotraste na 2ª casa
Intro: Em C9 D Em

                                      G
Acordar de madrugada com um telefonema seu
             Am                  B7
A essa hora já bebeu, aí criou coragem
                                          Em
Pra dizer que quer voltar e que tá com saudades
                                G
Isso eu já previa mas é problema seu
                Am                 B7
A culpada não fui eu, foi tudo sacanagem
                                   Em
Fica ai na linha escuta essa verdade

Am                             Em
O celular aberto uma conversa estranha
                                          G
O contato era de um homem mas chamava de Fernanda
                 D
A mim você não engana

Riff 1


E|----------------------------|
B|----------------------------|
G|---2--4--2--0---------------| 
D|----------------------------|
A|----------------------------|
E|----------------------------|



 Am                               Em
Falava de um encontro que tinha marcado
                                     G
Foi bem no dia que fez hora extra no trabalho
                       D                        Am         B7
E ainda deixou comprovação, você mandou a localização

Riff 1


E|----------------------------|
B|----------------------------|
G|---2--4--2--0---------------| 
D|----------------------------|
A|----------------------------|
E|----------------------------|

          C9                                             D
A localização era de um motel barato desses na beira de estrada
                     Em
Você traiu a mulher errada
                                   
Essa amante não te soma em nada oooo

Riff 2


E|----------------------------|
B|----------------------------|
G|----------------------------| 
D|---5--4--2--0---------------|
A|----------------------------|
E|----------------------------|




C9                                              D
Atirou no próprio pé apostou tudo sem nenhuma carta
                     Em
Você traiu a mulher errada
                                     C9   D
Essa amante não te soma em nada oooooo
                                    Em        C9  D  Em
Não fui criada em circo pra virar palhaça

 Am                            Em
O celular aberto uma conversa estranha
                                          G
O contato era de um homem mas chamava de Fernanda
                 D
A mim você não engana

Riff 1


E|----------------------------|
B|----------------------------|
G|---2--4--2--0---------------| 
D|----------------------------|
A|----------------------------|
E|----------------------------|

 Am                               Em
Falava de um encontro que tinha marcado
                                     G
Foi bem no dia que fez hora extra no trabalho
                       D                        Am
E ainda deixou comprovação, você mandou a localização

Riff 3


E|----------------------------------------------------|
B|----------------------------------------------------|
G|----------------------------------------------------| 
D|---0--2--4--5--4--2----0--2--4--5--4--2-------------|
A|----------------------------------------------------|
E|----------------------------------------------------|


          C9                                             D
A localização era de um motel barato desses na beira de estrada
                     Em
Você traiu a mulher errada
                                 
Essa amante não te soma em nada oooo

Riff 2


E|----------------------------|
B|----------------------------|
G|----------------------------| 
D|---5--4--2--0---------------|
A|----------------------------|
E|----------------------------|




 C9                                             D
Atirou no próprio pé apostou tudo sem nenhuma carta
                     Em
Você traiu a mulher errada
                                   
Essa amante não te soma em nada 

Riff 2


E|----------------------------|
B|----------------------------|
G|----------------------------| 
D|---5--4--2--0---------------|
A|----------------------------|
E|----------------------------|



           C9                                            D
A localização era de um motel barato desses na beira de estrada
                     Em
Você traiu a mulher errada
                                 C9
Essa amante não te soma em nada oooo
 Riff 2


E|----------------------------|
B|----------------------------|
G|----------------------------| 
D|---5--4--2--0---------------|
A|----------------------------|
E|----------------------------|



  C9                                          D
Atirou no próprio pé apostou tudo sem nenhuma carta
                     Em
Você traiu a mulher errada
                                       C9
Essa amante não te soma em nada oooooo

                                              D
Atirou no próprio pé apostou tudo sem nenhuma carta
                     Em
Você traiu a mulher errada
                                       C9   D
Essa amante não te soma em nada oooooo
                                    Em
Não fui criada em circo pra virar palhaça
Acordes para:
    Colaboração e revisão:
    • Alan Sa
    • thiago

    0 comentários

      mostrar mais comentários

      Conseguiu tocar?

      2tocaram0ainda não

      Grave um vídeo tocando Localização (part. Villa Baggage) e mande pra gente!

      00:00 / 00:00
      outros vídeos desta música
      repetirqualidadeautomática
      Outro vídeos desta música
        00:00 / 00:00
        automática
        OK