Cifra Club

Você Faz Falta Aqui

Maiara e Maraisa

Cifra: Principal
exibições 445.174
Tom: A
Intro: A9


     A9
E|-0----------------------------------------|
B|-0---0---0---0---0---0---0---0------------|
G|-2-2---2---2---2---2---2---2---2----------|
D|-2----------------------------------------|
A|-0----------------------------------------|
E|------------------------------------------|


Primeira Parte:

   A9
Você, você, faz falta, falta

Aqui, aqui, aqui
       F#m7(11)
Que o som, o som, bate, bate

Volta, volta, volta
     D9
Não tem mais nada entre o chão 

E o teto, teto, teto
     A9
Só o eco, eco, eco, eco

Primeira Parte:

Parte 1 de 4

     A9
E|-0----------------------------------------|
B|-0---0---0---0---0---0---0---0------------|
G|-2-2---2---2---2---2---2---2---2----------|
D|-2----------------------------------------|
A|-0----------------------------------------|
E|------------------------------------------|


Parte 2 de 4

     F#m7(11)
E|-0----------------------------------------|
B|-0---0---0---0---0---0---0---0------------|
G|-2-2---2---2---2---2---2---2---2----------|
D|-2----------------------------------------|
A|------------------------------------------|
E|-2----------------------------------------|


Parte 3 de 4

     D9
E|-0----------------------------------------|
B|-3----------------------------------------|
G|-2---2---2---2---2---2---2---2------------|
D|-0-0---0---0---0---0---0---0---0----------|
A|------------------------------------------|
E|------------------------------------------|


Parte 4 de 4

     A9
E|-0---------------0------------------------|
B|-0---0---0---0---0------------------------|
G|-2-2---2---2---2-2------------------------|
D|-2---------------2------------------------|
A|-0----------------------------------------|
E|------------------------------------------|


Pré-refrão:

        D9
Tem certeza que você levou tudo?
        F#m7(11)
Tem certeza que não esqueceu nada?
       D9
Eu só sei que até o criado mudo
        Dm
Do seu livro preferido sente falta


Refrão:

                     A9
É que eu te vejo em tudo

Em cada canto dessa casa
                    F#m7(11)
Nos cabides, nas gavetas 

E na cama bagunçada
                D9
E no box do banheiro

Sempre que o vidro embaça
                      Dm
Tem seu nome, um coração 

E uma flecha atravessada

                     A9
É que eu te vejo em tudo

Em cada canto dessa casa
                    F#m7(11)
Nos cabides, nas gavetas 

E na cama bagunçada
                        D9
E o seu cheiro está grudado 

Em cada roupa que eu usava
                 Dm
Você foi e esqueceu 

                       A9
De levar a saudade na mala, mala, mala


Primeira Parte:

   B9
Você, você, faz falta, falta

Aqui, aqui, aqui
       G#m7(11)
Que o som, o som, bate, bate

Volta, volta, volta
     E9
Não tem mais nada entre o chão 

E o teto, teto, teto
     B9
Só o eco, eco, eco, eco


Pré-refrão:

        E9
Tem certeza que você levou tudo?
        G#m7(11)
Tem certeza que não esqueceu nada?
       E9
Eu só sei que até o criado mudo
        Em
Do seu livro preferido sente falta


Refrão:

                     B9
É que eu te vejo em tudo

Em cada canto dessa casa
                    G#m7(11)
Nos cabides, nas gavetas 

E na cama bagunçada
                E9
E no box do banheiro

Sempre que o vidro embaça
                      Em
Tem seu nome, um coração 

E uma flecha atravessada

                     B9
É que eu te vejo em tudo

Em cada canto dessa casa
                    G#m7(11)
Nos cabides, nas gavetas 

E na cama bagunçada
                        E9
E o seu cheiro está grudado 

Eem cada roupa que eu usava
                 Em
Você foi e esqueceu 
                       B9
De levar a saudade na mala, mala, mala

Você, você, faz falta, falta

Aqui, aqui, aqui
Acordes para:

    0 comentários

      mostrar mais comentários

      Conseguiu tocar?

      16tocaram3ainda não

      Grave um vídeo tocando Você Faz Falta Aqui e mande pra gente!

      00:00 / 00:00
      outros vídeos desta música
      repetirqualidadeautomática
      Outro vídeos desta música
        00:00 / 00:00
        automática
        Capítulos
        • Tocando a música
        • Dicas Iniciais / Equipamentos
        • Acordes da Introdução e Primeira Parte
        • Tocando a Introdução e Primeira Parte
        • Introdução
        • Primeira Parte - Parte 1 de 4
        • Primeira Parte - Parte 2 de 4
        • Primeira Parte - Parte 3 de 4
        • Primeira Parte - Parte 4 de 4
        • Acordes do Pré-Refrão
        • Tocando o Pré-Refrão
        • Ritmo da Música
        • Tocando o Refrão
        • Ritmo do Refrão
        • Acordes da Primeira Parte (variação)
        • Tocando a Primeira Parte (variação)
        • Ritmo da Primeira Parte (variação)
        • Tocando o Pré-Refrão (variação)
        • Ritmo do Pré-Refrão (variação)
        • Tocando o Refrão (variação)
        • Encerramento
        • Ficha Técnica
        OK