Cifra Club

Crepúsculo

Maldita

Cifra: Principal (violão e guitarra)
tom: A
(intro)

E|----9---9---9---9---7---7-7-5----9---9---9---9---9-9-9-5------|
B|--7---7---6---6---5---5--------7---7---6---6---5--------------|
G|--------------------------------------------------------------|
D|--------------------------------------------------------------|
A|--------------------------------------------------------------|
E|--------------------------------------------------------------|

E|----9---9---9---9---7---7-7-5----9---9---9---9--9-----|
B|--7---7---6---6---5---5--------7---7---6---6----5-----|
G|------------------------------------------------------|
D|------------------------------------------------------|
A|------------------------------------------------------|
E|------------------------------------------------------|

 (Guitarra Base: Parte A + Refrão)
E|-------------------------------------|
B|-------------------------------------|
G|-------------------------------------|
D|-------------------------------------|
A|---4--4-----4--4--4----4--4--2-------|
E|---2--2-----2--1--1----1--0--0-------|

Mutilações indizíveis ao espírito.
Angustia me aperta ate sufocar.
As camas estão sujas
de sangue e de vinho.
É o crepúsculo de um novo dia
e eu sei que eu não vou levantar.

(Guitarra Solo: Refrão)
E|--------------------------------------------------------0-----|
B|-------------------------5------------------------------0-----|
G|------2-4/6-6------2-4/6---6-------2-4/6-6---4/2-2-2/1--------|
D|--2-4----------2-4-------------2-4----------------------------|
A|--------------------------------------------------------------|
E|--------------------------------------------------------------|

(Guitarra Base)
Imagens caem.
como neve...
Eu vou para o bar, mas não posso falar.
tinha uma menina
do outro lado da rua.
É o eterno inverno.
Não deixa eu me aproximar.

(refrão)

Acenda uma vela, que eu quero enxergar
mas o pecado do meu lado e eu não vou me rebaixar.
Deitado na minha cama, 300 miligramas.
Olho para o crucifixo, começo a chorar deitado o dia inteiro.
em estado de espelho, mas eu não me arrependo.
deitado na minha cama, 300 miligramas.
Olho para o crucifixo começo a rezar.

(Parte Extra - Etapas 1 e 2)
E|-------------------------------------------------------------|----------------------------------|
B|-------------------------------------------------------------|----------------------------------|
G|-------------------------------------------------------------|----------------------------------|
D|--4--4--4/5--5--5/7------------------------------------------|----------------------------------|
A|--2--2--2/3--5--5/7--7-7-7-9-10----------------9b10----------|--2-2-2----2--2---2-2-2----2--2---|
E|--2--2--2/3--3--3/5--5-5-5-7-8-----10b12--0------------0-----|--0-0-0----0--0---0-0-0----0--0---|

(Guitarra Solo da parte Extra - Etapa 2)
E|--0---0---0-0--0---0---0-0--0---0---0-0--0-----0----------|
B|--3/5-5---5-5--5/7-7---7-7--7/8-8---8-8--10/12-10---------|
G|----------------------------------------------------------|
D|----------------------------------------------------------|
A|----------------------------------------------------------|
E|----------------------------------------------------------|

(refrão)

Acenda uma vela, que eu quero enxergar
mas o pecado do meu lado e eu não vou me rebaixar.
Deitado na minha cama, 300 miligramas.
Olho para o crucifixo, começo a chorar

(Solo)
E|------------------------------------------|-------------------------------------|
B|---------------------------------------17-|-------------------------------------|
G|----x/11---14/9---13b14b13---13b14b13-----|--x/11---14/9---13b14b13---11/9------|
D|------------------------------------------|---------------------------------11--|
A|------------------------------------------|-------------------------------------|
E|------------------------------------------|-------------------------------------|

E|------------------------------------------|-------------------------|
B|---------------------------------------17-|-------------------------|
G|----x/11---14/9---13b14b13---13b14b13-----|--x/11---11b13b11/7------|
D|------------------------------------------|-------------------------|
A|------------------------------------------|-------------------------|
E|------------------------------------------|-------------------------|

(Parte Extra - Etapa 1 )

(refrão)

Acenda uma vela, que eu quero enxergar
mas o pecado do meu lado e eu não vou me rebaixar.
Deitado na minha cama, 300 miligramas.
Olho para o crucifixo, começo a chorar deitado o dia inteiro.
em estado de espelho, mas eu não me arrependo.
deitado na minha cama, 300 miligramas.
Olho para o crucifixo começo a rezar.
00:00 / 00:00
Outros vídeos desta música
Repetir
Outros vídeos desta música
Compositor não encontrado.
Colaboração e revisão:
  • Leandro
  • João Xavier
  • alexoliveiradasilva
6.309 exibições
    • ½ Tom
    • A
    • Bb
    • B
    • C
    • Db
    • D
    • Eb
    • E
    • F
    • F#
    • G
    • Ab
  • Adicionar à lista

    0 comentários

    Ver todos os comentários

    Entre para oCifra Club PRO

    Tenha acesso a benefícios exclusivos no App e no Site

    • Chega de anúncios

    • Prioridade de compra em lançamentos

    • Mais recursos no app do Afinador

    • Atendimento Prioritário

    • Descontos nos produtos Cifra Club

    • Ajude a produzir mais conteúdo

    00:00 / 00:00

    Cifra Club Pro

    Aproveite o Cifra Club com benefícios exclusivos e sem anúncios
    Cifra Club Pro
    Aproveite o Cifra Club com benefícios exclusivos e sem anúncios
    OK