Cifra Club

Passivo/agressivo

Maldita

Cifra: Principal (violão e guitarra)
tom: C
  Faça o dedilhado com o acorde Am

e|----------------------------------------------------------------| ...
B|-------------0----0-1---1-0---0-1----1-0---0-1------------------| Vai repetindo
G|-0---0-2---2-------------------------------------0----0-2-------| tudo novamente.
D|---2-----2-----2------2-----2-----2------2-----2----2-----------|
A|----------------------------------------------------------------|
E|----------------------------------------------------------------|

Depos do baixo vem a base da musica!
 
e|----------------------------------------------------------------|
B|----------------------------------------------------------------| eh praticamente a
G|--------------2-----0-----2-----------2-----0-----2-------------|  base toda da musica
D|---12/-----2--2--2--0--2--2--5-5---2--2--2--0--2--2--2--5-5-----|
A|---12/-----2-----2-----2-----5-5---2-----2-----2-----2--5-5-----|
E|-----------------------------3-3------------------------3-3-----|
00:00 / 00:00
Outros vídeos desta música
Repetir
Outros vídeos desta música
Composição de Rock
Colaboração e revisão:
  • rodrigo cintra
6.193 exibições
    • ½ Tom
    • A
    • Bb
    • B
    • C
    • Db
    • D
    • Eb
    • E
    • F
    • F#
    • G
    • Ab
  • Adicionar à lista

    0 comentários

    Ver todos os comentários

    Entre para oCifra Club PRO

    Tenha acesso a benefícios exclusivos no App e no Site

    • Chega de anúncios

    • Prioridade de compra em lançamentos

    • Mais recursos no app do Afinador

    • Atendimento Prioritário

    • Descontos nos produtos Cifra Club

    • Ajude a produzir mais conteúdo

    00:00 / 00:00

    Cifra Club Pro

    Aproveite o Cifra Club com benefícios exclusivos e sem anúncios
    Cifra Club Pro
    Aproveite o Cifra Club com benefícios exclusivos e sem anúncios
    OK