Cifra Club

Aprenda

Culpa do Amor

Mallu Magalhães

Cifra: Principal (violão e guitarra)
Quer fazer aulas de música com a gente? Responda essas perguntas
e nos ajude nesse projeto! →
tom: G
E|-------------------------------------------|
B|-------------------------------------------|
G|--------------------------0--2-------------|
D|---------0------0--0-2--4-----s4-----------|
A|----9-7----4--2----------------------------|
E|-7-----------------------------------------|

E|-------------------------------------------|
B|-------------------------------------------|
G|-4-2--0------------------------------------|
D|--------4--2-0----0------------------------|
A|----------------2---2-4-2--1---1s2---------|
E|-----------------------------2-------------|

Bm7           Em7
A gente briga sem querer
Bm7          Em7
E o tempo demora passar
Bm7           Em7
Você não vai me convencer
Bm7          Em7
E eu não vou nem tentar

Bm7          Em7
Alguns minutos de aflição
Bm7           Em7
E a gente se olha sem jeito
Bm7          Em7
Ri de tudo o que passou
Bm7    Em7
E dá um beijo

G             D
É tudo arte do amor
G             D
Brigas de aluguel
G             D
É tudo culpa do amor
G7                             
Que anda pregando suas peças 
   F#7                 Bm7
No azul tão bonito do céu

Bm7           Em7
A gente corre sem saber
Bm7           Em7
Que o tempo pode até parar
Bm7           Em7
Nem tudo que foge dos planos, dá errado

Bm7           Em7
Na vida que há pra viver
Bm7          Em7
Nas coisas que dá para ter
Bm7           Em7
À margem de qualquer enganos, namorados

G             D
É tudo arte do amor
G             D
Brigas de aluguel
G             D
É tudo culpa do amor
G7                             
Que anda pregando suas peças 
   F#7                 Bm7
No azul tão bonito do céu
Composição de Mallu Magalhães
Colaboração e revisão:
  • Yolanda Pereira
  • Manoela Mace
2.871 exibições
    • ½ Tom
    • A
    • Bb
    • B
    • C
    • Db
    • D
    • Eb
    • E
    • F
    • F#
    • G
    • Ab
  • Adicionar à lista

    0 comentários

    Ver todos os comentários

    Conseguiu tocar?

    0 Tocaram 1 Ainda não

    Grave um vídeo tocando Culpa do Amor e nos envie!

    00:00 / 00:00
    Outros vídeos desta música
    Repetir Qualidade Automático
    Outros vídeos desta música
    00:00 / 00:00
    Automático

    Cifra Club Pro

    Aproveite o Cifra Club com benefícios exclusivos e sem anúncios
    Cifra Club Pro
    Aproveite o Cifra Club com benefícios exclusivos e sem anúncios
    OK