Don't You Look Back

Mallu Magalhães

Composição de: Mallu Magalhães
tom: D
(afinar e(mizinha) em D e tocar apenas as quatro cordas de baixo)
(afinação D|G|B|D)

(riff 1 - principal)

D|0-0-0-0-0------|         d|5-5-5-5|
B|0-0-0-0-0------|   4x    B|5-5-5-5|   4x
G|0-0-0-0-0------|         G|5-5-5-5|
D|0-0-0-0-0-3-2-1|         D|5-5-5-5|

(riff 2 - refrão)

d|8|     d|7|
B|8| 4x  B|7| 4x
G|8|     G|7|
D|8|     D|7|

(riff 1)
Don't, don't you look back
Don't you fade away,
Don't fade white to black
Love brings me happiness
I can't complain
Just because I'm insane

(riff 2)
'Cause I still believe
Love solves and saves
Like urban doves flying wild wind waves
Yeah, they don't look back

(riff 1)
Don't, don't you look back
Don't you fade away,
Don't fade white to black
Love drove me to you
I don't wanna blame
Because you drove me insane

(riff 2)
And I still believe
Love solves and saves
Like urban doves flying wild wind waves
Yeah, they don't look back

(solo guitarra)
D|--------------------------------------
B|---------9---12p11p9--12-9------9-----
G|---9h11---------------------11--------
D|--------------------------------------
A|--------------------------------------
E|--------------------------------------

D|--------------------------------------
B|---------8-8-10-8-11-8----------------
G|---9h11-----------------7b------------
D|--------------------------------------
A|--------------------------------------
E|--------------------------------------
Página 1 / 1

Letras e título
Acordes e artista

resetar configurações
OK