Cifra Club

Aprenda

Linha Verde

Mallu Magalhães

Cifra: Principal (violão e guitarra)
Já pensou em usar uma coleção de roupas do Cifra Club? Responda as perguntas abaixo e nos ajude nessa missão! →
tom: Am
[Intro]

E|-12-15-12------------12--------------------------------------10s12-10-------|
B|----------15---13-13----13-12--------13-------------------12----------------|
G|-------------------------------14-14----14-12----10-10-12-------------------|
D|----------------------------------------------------------------------------|
A|----------------------------------------------------------------------------|
E|----------------------------------------------------------------------------|

E|-12-15-12------------12--------------------------------------10s12-10-------|
B|----------15---13-13----13-12--------13-------------------12----------------|
G|-------------------------------14-14----14-12----10-10-12-------------------|
D|----------------------------------------------------------------------------|
A|----------------------------------------------------------------------------|
E|----------------------------------------------------------------------------|

        C               Am
A linha verde, o tempo bom
           Dm       G
Quem vem de longe sabe
       C            Am
É carinhoso, é caminhão
          Dm       G
Paixão de fim de tarde

Am Am/G#   Am/G  Am/F#
Pa--recia rea--lidade
F7M     E7  Am   A7
Motivos do coração
Dm    G           Am  Bb
E aí na esquina, felicidade
F       E7     Am
Passeia na multidão

         C           Am
Onde há meninos, há heróis
     Dm     G
A esperança sabe
          C       Am
Como é gostoso passear
         Dm      G
Depois da tempestade

Am Am/G#   Am/G  Am/F#
Parecia uma andorinha
F7M         E7  Am   A7
Levando a chuva daqui
Dm      G         Am  Bb
E aí em casa, a gente aninha
F         E7     Am
E a nossa filha sorri

[Solo] C  Am  Dm  G  C  Am  Dm  G

Am Am/G#   Am/G  Am/F#
Pa--recia rea--lidade
F7M     E7  Am   A7
Motivos do coração
Dm    G           Am  Bb
E aí na esquina, felicidade
F       E7     Am
Passeia na multidão
Composição de Mallu Magalhães
Colaboração e revisão:
  • Matheus Ribeiro
  • Leonardo
  • Danilo Sales
3.854 exibições
    • ½ Tom
    • Am
    • Bbm
    • Bm
    • Cm
    • C#m
    • Dm
    • Ebm
    • Em
    • Fm
    • F#m
    • Gm
    • G#m
  • Adicionar à lista

    0 comentários

    Ver todos os comentários

    Conseguiu tocar?

    7 Tocaram 0 Ainda não

    Grave um vídeo tocando Linha Verde e nos envie!

    00:00 / 00:00
    Outros vídeos desta música
    Repetir Qualidade Automático
    Outros vídeos desta música
    00:00 / 00:00
    Automático

    Cifra Club Pro

    Aproveite o Cifra Club com benefícios exclusivos e sem anúncios
    Cifra Club Pro
    Aproveite o Cifra Club com benefícios exclusivos e sem anúncios
    OK