Cifra Club

Chopis Centis

Mamonas Assassinas

Tab de baixo: Principal
exibições 46.488
Introdução 

Parte 01 de 02

G|----------------------------------------------|
D|----------------------------------------------|
A|----------------------------------------------|
E|---------5-5-5-----2-4-5----------------------|
B|-7/13\---------3-3----------------------------|

Parte 02 de 02 ( tocar 3x ) 

G|----------------------------------------------|
D|----------------------------------------------|
A|----------------------------------------------|
E|-5-5-5-----2-4-5------------------------------|
B|-------3-3------------------------------------|

Primeira parte

Eu di um beijo nela...

Parte 01 de 01 ( Tocar 4x )

G|----------------------------------------------|
D|----------------------------------------------|
A|-5-5-5-5--5-5-5--7----------------------------|
E|--------------------5-5-5-----2-4-5-----------|
B|--------------------------3-3-----------------|

Refrão 

Quanta gente...

Parte 01 de 02( Tocar 3x )

G|----------------------------------------------|
D|----------------------------------------------|
A|-5-5-5-5-5--5-5-5-5-5--7-7-7-7-7--7-7-7-7-7---|
E|----------------------------------------------|
B|----------------------------------------------|

G|----------------------------------------------|
D|----------------------------------------------|
A|----------------------------------------------|
E|-5-5-5-5-5--5-5-5-5-5--5-5-5-5-5--5-5-5-5-5---|
B|----------------------------------------------|

Parte 02 de 02

G|----------------------------------------------|
D|----------------------------------------------|
A|-5-5-5-5-5--5-5-5-5-5--7-7-7-7-7--7-7-7-7-7---|
E|----------------------------------------------|
B|----------------------------------------------|

Introdução 02

Parte 01 de 01 ( Tocar 4x )

G|----------------------------------------------|
D|----------------------------------------------|
A|----------------------------------------------|
E|-5-5-5-----2-4-5------------------------------|
B|-------3-3------------------------------------|

Segunda parte

Esse tal Chópis Cêntis...

Parte 01 de 01 ( Tocar 4x )

G|----------------------------------------------|
D|----------------------------------------------|
A|-5-5-5-5--5-5-5--7----------------------------|
E|--------------------5-5-5-----2-4-5-----------|
B|--------------------------3-3-----------------|

Refrão 02

Quanta gente...

Parte 01 de 02 ( Tocar 3x )

G|----------------------------------------------|
D|----------------------------------------------|
A|-5-5-5-5-5--5-5-5-5-5--7-7-7-7-7--7-7-7-7-7---|
E|----------------------------------------------|
B|----------------------------------------------|

G|----------------------------------------------|
D|----------------------------------------------|
A|----------------------------------------------|
E|-5-5-5-5-5--5-5-5-5-5--5-5-5-5-5--5-5-5-5-5---|
B|----------------------------------------------|

Parte 02 de 02

G|----------------------------------------------|
D|----------------------------------------------|
A|-5-5-5-5-5--5-5-5-5-5--7-7-7-7-7--7-7-7-7-7---|
E|----------------------------------------------|
B|----------------------------------------------|

Introdução 03 ( Final )

Parte 01 de 01 

G|----------------------------------------------|
D|----------------------------------------------|
A|----------------------------------------------|
E|-5-5-5-----2-4-5------------------------------|
B|-------3-3------------------------------------|

0 comentários

    mostrar mais comentários

    Conseguiu tocar?

    6tocaram0ainda não

    Grave um vídeo tocando Chopis Centis e mande pra gente!

    00:00 / 00:00
    outros vídeos desta música
    repetirqualidadeautomática
    Outro vídeos desta música
      00:00 / 00:00
      automática
      OK