Cifra Club

Mundo Animal

Mamonas Assassinas

Tab de baixo: Principal
exibições 42.355
[Introdução]

Parte 1 
G|----------------------------------------------|
D|----------------------------------------------|
A|-----3--------3----------7-7-7-7--7-7-7-7-----|
E|-3-5---5--3-5---5--3-5\-----------------------|

G|----------------------------------------------|
D|----------------------------------------------|
A|-5-5-5-5-5------3------3----------------------|
E|------------3-5---5--3---5--------------------|

[Primeira parte]

Comer tatu é bom...

Parte 1 de 3( 5x )
G|----------------------------------------------|
D|-------9--------------7-----------------------|
A|-7-7-7---7---7--5-5-5---5---5-----------------|
E|-----------7--------------5---5-5-5--5-5-5----|

Parte 2 de 3
G|----------------------------------------------|
D|-------9--------------7-----------------------|
A|-7-7-7---7---7--5-5-5---5---5-----------------|
E|-----------7--------------5---5-5-5--5--------|

Parte 3 de 3 ( 4x )
G|----------------------------------------------|
D|----------------------------------------------|
A|-7-7-7-7--7-7-7-7--5-5-5-5--5-5-5-5-----------|
E|----------------------------------------------|

G|----------------------------------------------|
D|----------------------------------------------|
A|-0-0-0-0--0-0-0-0--0-0-0-0--0-0-0-0-----------|
E|----------------------------------------------|

[Introdução 2]

Parte 1 de 2 ( 2x )
G|----------------------------------------------|
D|----------------------------------------------|
A|-----6~~------6~~-----6~~-----6~~-------------|
E|-0-0-----~0-0-----0-0-----0-0-----------------|

Parte 2 de 2
G|----------------------------------------------|
D|----------------------------------------------|
A|-------7---------------------7----------------|
E|-0-0-0---0-0-0--0-0-0--0-0-0----0-0-0--0-0-0--|

G|----------------------------------------------|
D|----------------------------------------------|
A|-------7--------------------------------------|
E|-0-0-0---0------------------------------------|



[Segunda parte]

As pombas quando avoam...

Parte 1 de 4( 6x )
G|----------------------------------------------|
D|-------9--------------7-----------------------|
A|-7-7-7---7---7--5-5-5---5---5-----------------|
E|-----------7--------------5---5-5-5--5-5-5----|

Parte 2 de 4
G|----------------------------------------------|
D|-------9--------------7-----------------------|
A|-7-7-7---7---7--5-5-5---5---5-----------------|
E|-----------7--------------5---5-5-5--5--------|

Parte 3 de 4 ( 7x )
G|----------------------------------------------|
D|----------------------------------------------|
A|-7-7-7-7--7-7-7-7--5-5-5-5--5-5-5-5-----------|
E|----------------------------------------------|

G|----------------------------------------------|
D|----------------------------------------------|
A|-0-0-0-0--0-0-0-0--0-0-0-0--0-0-0-0-----------|
E|----------------------------------------------|

Parte 4 de 4 ( Final )
G|----------------------------------------------|
D|----------------------------------------------|
A|-7-7-7-7--7-7-7-7--5-5-5-5--5-5-5-5-----------|
E|----------------------------------------------|

G|----------------------------------------------|
D|---9------------------------------------------|
A|-7---7-7-7-7---7-7-7---7---7-7-7--5-5-5-5-----|
E|-------------7-------7---7--------------------|

G|----------------------------------------------|
D|----------------------------------------------|
A|-5-5-5--0--5-5-5--0--5-5-5-5--0---------------|
E|----------------------------------------------|
Composição: Dinho Colaboração e revisão:
  • Reginaldo Costa

0 comentários

mostrar mais comentários

Conseguiu tocar?

2 tocaram 0 ainda não

Grave um vídeo tocando Mundo Animal e mande pra gente!

00:00 / 00:00
outros vídeos desta música
repetir qualidade Automático
Outros vídeos desta música
00:00 / 00:00
Automático
Capítulos
  • Tocando música
  • Apresentação / Equipamentos
  • Dicas música
  • TAB - Introdução
  • TAB - Primeira Parte - Parte 1 de 3
  • TAB - Primeira Parte - Parte 2 de 3
  • TAB - Primeira Parte - Parte 3 de 3
  • TAB - Introdução 2 - Parte 1 de 2
  • TAB - Introdução 2 - Parte 2 de 2
  • Dicas segunda parte
  • TAB - Segunda Parte - Parte 1 de 4
  • TAB - Segunda Parte - Parte 2 de 4
  • TAB - Segunda Parte - Parte 3 de 4
  • TAB - Segunda Parte - Parte 4 de 4
  • Encerramento
OK