Cifra Club

Robocop Gay

Mamonas Assassinas

Tab de baixo: Principal
exibições 89.792
[Introdução]

G|-------2---------2----------------------------|
D|---2-5---5---2-5---5-------2----------2-------|
A|-3---------3-----------2-5---5----2-5---5-----|
E|---------------------3----------3-------------|
B|----------------------------------------------|

G|----------------------------------------------|
D|-------2---------2----------------------------|
A|---2-5---5---2-5---5--3--3-3-3----------------|
E|-3---------3----------------------------------|
B|----------------------------------------------|

[Primeira parte]

Um tanto quanto másculo...

Parte 1 de 5

G|-------2---------2----------------------------|
D|---2-5---5---2-5---5-------2----------2-------|
A|-3---------3-----------2-5---5----2-5---5-----|
E|---------------------3----------3-------------|
B|----------------------------------------------|

G|----------------------------2-----3p2---------|
D|-------2---------2------2-5---5-------5-2-----|
A|---2-5---5---2-5---5--3---------3-------------|
E|-3---------3----------------------------------|
B|----------------------------------------------|

Parte 2 de 5

G|------2h3-2h3-------2-------------------------|
D|----------------2-5---5-------2---------2-----|
A|-3--3---------3-----------2-5---5---2-5---5---|
E|------------------------3---------3-----------|
B|----------------------------------------------|

G|----------------------------2-----------------|
D|-------2---------2------2-5---5---------------|
A|---2-5---5---2-5---5--3---------3-------------|
E|-3---------3----------------------------------|
B|----------------------------------------------|

Parte 3 de 5

G|--------------2-----------2-------------------|
D|--------2-5-5---5---2-5-5---5---------2-------|
A|------3-----------3-------------2-5-5---5-----|
E|-12\--------------------------3---------------|
B|----------------------------------------------|

G|-------------------------------------------2--|
D|---------2-----------2---------2-----2-5-5---5|
A|---2-5-5---5---2-5-5-----2-5-5---5-3----------|
E|-3-----------3---------3----------------------|
B|----------------------------------------------|

G|---------2------------------------------------|
D|---2-5-5--------------------------------------|
A|-3--------------------------------------------|
E|----------------------------------------------|
B|----------------------------------------------|

Parte 4 de 5

G|-----------2-----------2----------------------|
D|-----2-5-5---5---2-5-5---5---------2----------|
A|---3-----------3-------------2-5-5---5--------|
E|---------------------------3------------------|
B|----------------------------------------------|

G|-------------------------------------------2--|
D|---------2-----------2---------2-----2-5-5---5|
A|---2-5-5---5---2-5-5-----2-5-5---5-3----------|
E|-3-----------3---------3----------------------|
B|----------------------------------------------|

G|----------------------------------------------|
D|----------------------------------------------|
A|-3--------------------------------------------|
E|----------------------------------------------|
B|----------------------------------------------|

Parte 5 de 5

Um ser humano fantástico...

G|-----------2---------2------------------------|
D|-------2-5---5---2-5---5-------2----------2---|
A|-----3---------3-----------2-5---5----2-5---5-|
E|-12\---------------------3----------3---------|
B|----------------------------------------------|

G|----------------------------2--------3p2------|
D|-------2---------2------2-5---5----------5-2--|
A|---2-5---5---2-5---5--3---------3--3----------|
E|-3---------3----------------------------------|
B|----------------------------------------------|

G|------2h3-2h3-------2-------------------------|
D|----------------2-5---5-------2---------2-----|
A|-3--3---------3-----------2-5---5---2-5---5---|
E|------------------------3---------3-----------|
B|----------------------------------------------|

G|----------------------------------------------|
D|-------2---------2----------------------------|
A|---2-5---5---2-5---5--3-3-3-3--3-3-3-3--3-----|
E|-3---------3----------------------------------|
B|----------------------------------------------|

[Segunda parte - Instrumental - solo]

Parte 1 de 5

G|-5-------5------------------------------------|
D|---7-5-7---7-5--5-3-2-3-5-3-2-----------------|
A|-------------------------------3-5------------|
E|----------------------------------------------|
B|----------------------------------------------|

G|----------------------------------------------|
D|----------------------------------------------|
A|----------------------------------------------|
E|-5-5-5-5--5-5-5-5--5-5-5-5--5-5-5-5-----------|
B|----------------------------------------------|

G|----------------------------------------------|
D|----------------------------------------------|
A|----------------------------------------------|
E|-1-1-1-1--1-1-1-1--1-1-1-1--1-1-1-1-----------|
B|----------------------------------------------|

Parte 2 de 5 - 2x

Abra sua mente...
G|----------------------------------------------|
D|----------------------------5---3h5-----------|
A|-3-3-3-3--3-3-3-3--3-3-3-3----3---------------|
E|----------------------------------------------|
B|----------------------------------------------|

G|----------------------------------------------|
D|----------------------------------------------|
A|---------------------------3-5----------------|
E|-3-3-3-3--3-3-3-3--3-3-3-3--------------------|
B|----------------------------------------------|

G|----------------------------------------------|
D|----------------------------------------------|
A|----------------------------------------------|
E|-5-5-5-5--5-5-5-5--5-5-5-5--5-5-5-5-----------|
B|----------------------------------------------|

G|----------------------------------------------|
D|----------------------------------------------|
A|----------------------------------------------|
E|-1-1-1-1--1-1-1-1--1-1-1-1--1-1-1-1-----------|
B|----------------------------------------------|

Parte 3 de 5

G|----------------------------------------------|
D|----------------------------5---3h5-----------|
A|-3-3-3-3--3-3-3-3--3-3-3-3----3---------------|
E|----------------------------------------------|
B|----------------------------------------------|

G|----------------------------------------------|
D|----------------------------------------------|
A|---------------------------3-5----------------|
E|-3-3-3-3--3-3-3-3--3-3-3-3--------------------|
B|----------------------------------------------|

Parte 4 de 5

G|----------------------------------------------|
D|----------------------------------------------|
A|----------------------------------------------|
E|-5-5-5-5--5-5-5-5--5-5-5-5--5-5-5-5-----------|
B|----------------------------------------------|

Parte 5 de 5

G|----------------------------------------------|
D|----------------------------------------------|
A|----------------------------------------------|
E|-1--1--1--1--1--1---1--1--1-------------------|
B|----------------------------------------------|

[Refrão]

Faça uma plástica...

Parte 1 de 3

G|-5-------5------------------------------------|
D|---7-5-7---7-5--5-3-2-3-5-3-2-----------------|
A|-------------------------------3-5------------|
E|----------------------------------------------|
B|----------------------------------------------|

G|----------------------------------------------|
D|-------------------------------0h2------------|
A|----------------------------------------------|
E|-5-5-5-5--5-5-5-5--5-5-5-5--5-----------------|
B|----------------------------------------------|

G|----------------------------------------------|
D|----------------------------------------------|
A|----------------------------------------------|
E|-1-1-1-1--1-1-1-1--1-1-1-1--1-1-1-1-----------|
B|----------------------------------------------|

Parte 2 de 3

G|----------------------------------------------|
D|----------------------------5---3h5-----------|
A|-3-3-3-3--3-3-3-3--3-3-3-3----3---------------|
E|----------------------------------------------|
B|----------------------------------------------|

G|----------------------------------------------|
D|----------------------------------------------|
A|---------------------------3-5----------------|
E|-3-3-3-3--3-3-3-3--3-3-3-3--------------------|
B|----------------------------------------------|

Parte 3 de 3 - Final

G|----------------------------------------------|
D|----------------------------------------------|
A|----------------------------------------------|
E|-5-5-5-5--5-5-5-5--5-5-5-5--5-5-5-5-----------|
B|----------------------------------------------|

G|----------------------------------------------|
D|----------------------------------------------|
A|----------------------------------------------|
E|-1-1-1-1--1-1-1-1--1-1-1-1--1-1-1-1-----------|
B|----------------------------------------------|

G|----------------------------------------------|
D|----------------------------------------------|
A|-1--1-1-1-------------------------------------|
E|----------------------------------------------|
B|----------------------------------------------|
Colaboração e revisão:
  • Reginaldo Costa
  • Victor Lourenção
  • victor bresolin

0 comentários

    mostrar mais comentários

    Conseguiu tocar?

    9tocaram2ainda não

    Grave um vídeo tocando Robocop Gay e mande pra gente!

    00:00 / 00:00
    outros vídeos desta música
    repetirqualidadeautomática
    Outro vídeos desta música
      00:00 / 00:00
      automática
      Capítulos
      • Tocando a música
      • Apresentação / Equipamentos
      • Configuração do Pedal
      • Dicas Introdução - Primeira Parte
      • Introdução
      • Primeira Parte - Parte 1 de 5
      • Primeira Parte - Parte 2 de 5
      • Primeira Parte - Parte 3 de 5
      • Primeira Parte - Parte 4 de 5
      • Primeira Parte - Parte 5 de 5
      • Dicas Segunda Parte
      • Segunda Parte - Parte 1 de 3
      • Segunda Parte - Parte 2 de 3
      • Segunda Parte - Parte 3 de 3
      • Refrão - Parte 1 de 3
      • Refrão - Parte 2 de 3
      • Refrão - Parte 3 de 3
      • Encerramento
      • Ficha Técnica
      OK