Cifra Club

Vira-Vira

Mamonas Assassinas

Tab de baixo: Principal
[Introdução]

Parte 1 de 2

G|----13-16-----------------------13-16---------|
D|-14----------13-16----13-16--14---------------|
A|----------14-------14-------------------------|
E|----------------------------------------------|
B|----------------------------------------------|

G|----13-16-------------------------------------|
D|-14----------13-16----13-16---14--------------|
A|----------14-------14-------------------------|
E|----------------------------------------------|
B|----------------------------------------------|

Parte 2 de 2

Oh, raios!...
G|----------------------------------------------|
D|----------------------------------------------|
A|----------------------------------------------|
E|-2/14\----------------------------------------|
B|----------------------------------------------|

G|----------------------------------------------|
D|----------------------------------------------|
A|-7-6-4--------4-6-7--7-7-6-4--------4-6-7-----|
E|-------7--7-7----------------7--7-7-----------|
B|----------------------------------------------|


[Primeira parte]

Fui convidado pra uma tal de suruba...
G|----------------------------------------------|
D|----------------------------------------------|
A|--------2--2-2--2--2-2----------------2--2-2--|
E|-0--0-0----------------0--0-0--0--0-0---------|
B|----------------------------------------------|

G|----------------------------------------------|
D|----------------------------------------------|
A|-2--2-2----------------2--2-2--2--2-2---------|
E|--------0--0-0--0--0-0----------------0--0-0--|
B|----------------------------------------------|

G|----------------------------------------------|
D|----------------------------------------------|
A|--------0--0-0--2--2-2------------------------|
E|-0--0-0----------------0----------------------|
B|----------------------------------------------|


[Refrão]

Roda, roda e vira, solta a roda e vem...
G|----------------------------------------------|
D|----------------------------------------------|
A|-2--2-2---------2--2-2---------2--2-2---------|
E|---------0--0-0---------0--0-0---------0--0-0-|
B|----------------------------------------------|

G|----------------------------------------------|
D|----------------------------------------------|
A|-0--2--2--------------------------------------|
E|----------------------------------------------|
B|----------------------------------------------|


[Segunda Introdução]

G|----------------------------------------------|
D|----------------------------------------------|
A|-7-6-4--------4-6-7--7-7-6-4--------4-6-7-----|
E|-------7--7-7----------------7--7-7-----------|
B|----------------------------------------------|


[Segunda Parte]

Oh, Manoel olha acá como eu estou...
G|----------------------------------------------|
D|----------------------------------------------|
A|--------2--2-2--2--2-2----------------2--2-2--|
E|-0--0-0----------------0--0-0--0--0-0---------|
B|----------------------------------------------|

G|----------------------------------------------|
D|----------------------------------------------|
A|-2--2-2----------------2--2-2--2--2-2---------|
E|--------0--0-0--0--0-0----------------0--0-0--|
B|----------------------------------------------|

G|----------------------------------------------|
D|----------------------------------------------|
A|--------0--0-0--2--2-2------------------------|
E|-0--0-0----------------0----------------------|
B|----------------------------------------------|


[Segundo Refrão]

Roda, roda e vira, solta a roda e vem...
G|----------------------------------------------|
D|----------------------------------------------|
A|-2--2-2---------2--2-2---------2--2-2---------|
E|---------0--0-0---------0--0-0---------0--0-0-|
B|----------------------------------------------|

G|----------------------------------------------|
D|----------------------------------------------|
A|-0--2--2--------------------------------------|
E|----------------------------------------------|
B|----------------------------------------------|


[Terceira Parte]

Bate o pé...

Parte 1 de 2
G|----------------------------------------------|
D|----------------------------------------------|
A|-7-6-4------4-6-7-----7-----6------4-6-7------|
E|-------7--7-------0-0---0-0---7--7------------|
B|----------------------------------------------|

Parte 2 de 2

Oh, Maria essa suruba me excita...
G|----------------------------------------------|
D|----------------------------------------------|
A|--------2--2-2--2--2-2----------------2--2-2--|
E|-0--0-0----------------0--0-0--0--0-0---------|
B|----------------------------------------------|

G|----------------------------------------------|
D|----------------------------------------------|
A|-2--2-2----------------2--2-2--2--2-2---------|
E|--------0--0-0--0--0-0----------------0--0-0--|
B|----------------------------------------------|

G|----------------------------------------------|
D|----------------------------------------------|
A|--------0--0-0--2--2-2------------------------|
E|-0--0-0----------------0----------------------|
B|----------------------------------------------|

[Terceiro Refrão]

Roda, roda e vira, solta a roda e vem...
G|----------------------------------------------|
D|----------------------------------------------|
A|-2--2-2---------2--2-2---------2--2-2---------|
E|---------0--0-0---------0--0-0---------0--0-0-|
B|----------------------------------------------|

G|----------------------------------------------|
D|----------------------------------------------|
A|-0--2--2--------------------------------------|
E|----------------------------------------------|
B|----------------------------------------------|

[Introdução 3 - Final]

G|----------------------------------------------|
D|----------------------------------------------|
A|-7-6-4---------4-6-7--7-7-6-4--------4-6-7----|
E|-------7-x-x-7----------------7--7-7----------|
B|----------------------------------------------|
Composição de Dinho / Júlio Rasec
Colaboração e revisão:
64.359 exibições

0 comentários

Ver todos os comentários
00:00 / 00:00
Outros vídeos desta música
Repetir Qualidade Automático
Outros vídeos desta música
00:00 / 00:00
Automático
Capítulos
  • Tocando a música
  • Apresentação / Equipamentos
  • Dicas Introdução e Primeira Parte
  • Treinando Introdução - Parte 1 de 2
  • Treinando Introdução - Parte 2 de 2
  • Treinando Primeira Parte
  • Dicas Refrão e Segunda Introdução
  • Treinando Refrão
  • Treinando Segunda Introdução
  • Dicas Segunda Parte até Terceira Itnrodução
  • Treinando Terceira Parte - Parte 1 de 2
  • Treinando Terceira Parte - Parte 2 de 2
  • Treinando Terceira Introdução
  • Encerramento

Cifra Club Pro

Aproveite o Cifra Club com benefícios exclusivos e sem anúncios
Cifra Club Pro
Aproveite o Cifra Club com benefícios exclusivos e sem anúncios
OK