Cifra Club

Mar do Meu Mundo

Maneva

Cifra: Principal (violão e guitarra)
tom: F
[Intro] Dm  C  Bb  Gm  Am  Bb  C
        Dm  C  Bb  Gm  Am  Bb  C

[Primeira Parte]

    Dm                                C
Nos olhos um azul profundo revela sua alma
No mar do meu mundo
             Bb
Eu sempre fico no cais eu sempre fico no cais
   Dm
As águas são claras
                           C
São calmas, mas sempre da medo de atravessá-las
              Bb
Não sei o que encontrar não sei o que encontrar

[Refrão]

 Dm            C              Bb     A7
Cor tão bela, não dá trela, pro meu barco marrom
 Dm          C            Bb            A7
Não navega, abro a vela, mesmo sem ter vento bom

[Segunda Parte]

     Dm                                        C
À deriva a hora são segundos, não perco minha calma
Sou filho do justo
               Bb
Espero o que precisar espero o que precisar
 Dm
Tenho na minha consciência
             C
Não posso viver no escuro da ausência
               Bb
Dos olhos que gosto de olhar dos olhos que gosto de olhar

[Refrão]

 Dm            C              Bb     A7
Cor tão bela, não dá trela, pro meu barco marrom
 Dm          C            Bb            A7
Não navega, abro a vela, mesmo sem ter vento bom

( Dm  C  Bb  Gm  Am  Bb  C )
( Dm  C  Bb  Gm  Am  Bb  C )
( Dm  C  Bb  A7 )
( Dm  C  Bb  A7 )

[Solo]
E|-----------------------------------------------------|
B|-----------------------------------------------------|
G|---------------------------9-10-12--9-12-9-10--------|
D|---------------5-7-8-10-12---------------------------|
A|---------5-7-8---------------------------------------|
E|-6p5-6-8---------------------------------------------|

E|-------------------------------------8---------------|
B|-----------------------------6--8b10---10r8--6-------|
G|-----------5------------5--7-------------------------|
D|--7-7/5-5h7---3h5p3---5------------------------------|
A|-----------------------------------------------------|
E|-----------------------------------------------------|

E|-------8--10--------------9-12-9--------9-12-9-10----|
B|--8b10-----------------10------------10--------------|
G|--------------10/9--10------------10-----------------|
D|-----------------------------------------------------|
A|-----------------------------------------------------|
E|-----------------------------------------------------|

E|-------------------x----------------------------------|
B|--10-10-13--13-----x--18b20-18-17---------------------|
G|------------12b14--x--------------17------------------|
D|-------------------x-----------------17-15-15~~-------|
A|-------------------x----------------------------------|
E|-------------------x----------------------------------|

E|------------------------------------------------------|
B|------------------------------------------------------|
G|---19-19-17-17-14-14-----------------------19-17-14---|
D|---------------------14-14-------15p14-14-------------|
A|---------------------------15~------------------------|
E|------------------------------------------------------|

E|------------------------------------------------------|
B|-15-17-15-14-12---------------------------------------|
G|----------------15-14-12-10-14-10-12~~----------------|
D|------------------------------------------------------|
A|------------------------------------------------------|
E|------------------------------------------------------|

[Terceira Parte]

 Dm                C
Lá quando tem chuva, as águas não ficam turvas
 Bb            A7
Só realçam o azul do meu mar
 Dm                      C
Nem um problema que surja nada mais me preocupa
  Bb         A7
Que ver meu mar chorar

 Dm                C
Lá quando tem chuva, as águas não ficam turvas
 Bb            A7
Só realçam o azul do meu mar
 Dm                      C
Nem um problema que surja nada mais me preocupa
  Bb         A7     Dm
Que ver meu mar chorar

C                Bb  A7
 Ver meu mar chorar
                Dm
Ver meu mar chorar
C                Bb  A7
 Ver meu mar chorar

[Final] Dm  C  Bb  Gm  Am  Bb  C
        Dm  C  Bb  Gm  Am  Bb  C  Dm
00:00 / 00:00
Outros vídeos desta música
Repetir
Outros vídeos desta música
Composição de TALES DE POLLI
Colaboração e revisão:
60.991 exibições
    • ½ Tom
    • A
    • Bb
    • B
    • C
    • Db
    • D
    • Eb
    • E
    • F
    • F#
    • G
    • Ab
  • Adicionar à lista

    0 comentários

    Ver todos os comentários

    Conseguiu tocar?

    20 Tocaram 1 Ainda não

    Grave um vídeo tocando Mar do Meu Mundo e nos envie!

    Entre para oCifra Club PRO

    Tenha acesso a benefícios exclusivos no App e no Site

    • Chega de anúncios

    • Prioridade de compra em lançamentos

    • Mais recursos no app do Afinador

    • Atendimento Prioritário

    • Descontos nos produtos Cifra Club

    • Ajude a produzir mais conteúdo

    00:00 / 00:00

    Cifra Club Pro

    Aproveite o Cifra Club com benefícios exclusivos e sem anúncios
    Cifra Club Pro
    Aproveite o Cifra Club com benefícios exclusivos e sem anúncios
    OK