Cifra Club

Aprenda

Meu Pai É Rastafar-I

Maneva

Tab de baixo: Principal
Primeira parte: 

G|--------------|-----------|------------|
D|------10-9----|---10-9----|------------|
A|-7--7-------7-|-7---------|------------|
E|--------------|---------8-|------------|

G|----------------|--------------|
D|----------------|--------------|
A|----7-10-7-10---|-6-9-6-9-7----|
E|--------------7-|--------------|

Segunda parte:
 
G|-------------------------------------------------------------4-|
D|---------------------------------------------------------------|
A|-------------7-7-7-7-7-7-3-3-3-2-2-2-7-7-7-7-7-7-3-3-3-2--2----|<-- Aqui começa
E|-5-5-5-5-5-5---------------------------------------------------|     de novo a
                                                                        primeira parte. 



 A primeira parte pode ser tocada assim também
  acrescentando uma nota a mais, 
   fica um Riff mais completo. 

G|----------------|-------------|-----------|
D|------9-10-9----|---9-10-9----|-----------|
A|-7--7--------7--|-7-----------|-----------|
E|----------------|----------8--|-----------|
Colaboração e revisão:
  • diego monzine
  • Lucas Fabrini
  • Caio Meireles
4.125 exibições

0 comentários

Mostrar mais comentários

Conseguiu tocar?

4 Tocaram 0 Ainda não

Grave um vídeo tocando Meu Pai É Rastafar-I e mande pra gente!

00:00 / 00:00
outros vídeos desta música
repetir qualidade Automático
Outros vídeos desta música
00:00 / 00:00
Automático

Cifra Club Pro

Aproveite o Cifra Club com benefícios exclusivos e sem anúncios
7 dias grátis
Cifra Club Pro
Aproveite o Cifra Club com benefícios exclusivos e sem anúncios
7 dias grátis
OK