Enviar cifraEntrar

Meu Pai É Rastafar-I

Maneva

Cifra: Principal
exibições 155.468
Tom: C

[Intro] Em  C  B
E|----------------------------------------------------------|
B|----------------------------------------------------------|
G|----------------------------------------------------------|
D|--------10-10-9-9--------10-10-9-9------------------------|
A|-7-7--7-----------7-7--7---------------10---10-----9---9--|
E|-----------------------------------8-8----8----7-7---7----|


                  Em
Depois de três meses que minha mãe acabara de falecer
       C                           B                    Em      C B
Recebi uma carta de quem eu pensei que nunca mais iria aparecer
       Em
Quando li tinha palavras amargas
             C                   B                         Em
Podia sentir o papel ainda molhado de lágrimas ou coisa assim
                    C B
A carta dizia assim
     Em
"Cansei de São Paulo

Resolvi mudar de estado
             C      B
Pra poder espairecer
                  Em
Deixei meu cabelo crescer

A minha barba por fazer
              C
Não sabia se ia engordar
          B
Ou se ia emagrecer
            Em
Até que pensei

Como um cara da minha idade
                      C
Tive você com dezesseis
                        B
Precisava de mais liberdade
      Em
Subi num caminhão e sem direção
        C
Como um covarde
              B
Eu cheguei no Maranhão
            Em
Aqui estava mais confiante e feliz
                 C
Com vários amigos
                      B
Fazendo um reggae raiz
       Em
Mandei essa carta

Pra você não se espantar
          C
Aqui está meu endereço
           B
Venha me visitar"

A             Em
      Fui visitá-lo

E ele estava bem mudado
                C
De cabelo rastafari
                 B
Enrolando um baseado
                   Em
Foi aí que eu percebi

Que ele estava mais lesado
               C
Com idéias rebeldes
                   B
Com o olho avermelhado
      Em
Perguntei por que tinha isso na mão
                 C
Se quando eu usava
                      B
Me diziam que não era bom
            Em
E respondeu, humildemente
                C
"Faça sua cabeça
                      B
E se sente com a gente"
             Em        C   B
Meu pai é Rastafar-I
             Em        C   B
Meu pai é Rastafar-I
             Em        C   B
Meu pai é Rastafar-I

(Solo) (Em      C  B)
                         

E|-19~--15-17-15----15--------------------------15----15----------------|
B|---------------17----17-15h17--17-15----15-17----17----17-15----15-17-|
G|-------------------------------------16----------------------16-------|
D|----------------------------------------------------------------------|
A|----------------------------------------------------------------------|
E|----------------------------------------------------------------------|


E|------------------------------------------------------|
B|-17-15----15------------------------------------------|
G|-------16----16-14-16-14-12-14-12-11-12-10-11-10------|
D|-------------------------------------------------12---|
A|------------------------------------------------------|
E|------------------------------------------------------|


E|-------12-------12-------12-10h12-12-10----12-10h12-12-10----12-10h12-12-10-12-15/17-15--|
B|-10h12----10h12----10h12----------------12----------------12-----------------------------|
G|-----------------------------------------------------------------------------------------|
D|-----------------------------------------------------------------------------------------|
A|-----------------------------------------------------------------------------------------|
E|-----------------------------------------------------------------------------------------|


E|---------------------------------------------------------------|
B|-17-15----15-------------------------------10h12-10------------|
G|-------16----16-14-16-14-12-14-12-11-12-10----------12-9----9~-|
D|---------------------------------------------------------12----|
A|---------------------------------------------------------------|
E|---------------------------------------------------------------|


 Em
"Cansei de São Paulo

Resolvi mudar de estado
             C      B
Pra poder espairecer
                  Em
Deixei meu cabelo crescer

A minha barba por fazer
              C
Não sabia se ia engordar
          B
Ou se ia emagrecer
            Em
Até que pensei

Como um cara da minha idade
                      C
Tive você com dezesseis
                        B
Precisava de mais liberdade
      Em
Subi num caminhão e sem direção
        C
Como um covarde
              B
Eu cheguei no Maranhão
            Em
Aqui estava mais confiante e feliz
                 C
Com vários amigos
                      B
Fazendo um reggae raiz
       Em
Mandei essa carta

Pra você não se espantar
          C
Aqui está meu endereço
           B
Venha me visitar"

A             Em
      Fui visitá-lo

E ele estava bem mudado
                C
De cabelo rastafari
                 B
Enrolando um baseado
                   Em
Foi aí que eu percebi

Que ele estava mais lesado
               C
Com idéias rebeldes
                   B
Com o olho avermelhado
       Em
Perguntei por que tinha isso na mão
                 C
Se quando eu usava
                      B
Me diziam que não era bom
            Em
E respondeu, humildemente
                C
"Faça sua cabeça
                      B
E se sente com a gente"
             Em        C   B
Meu pai é Rastafar-I
             Em        C   B
Meu pai é Rastafar-I
             Em        C   B
Meu pai é Rastafar-I


 (Solo final)  Em    C  B
E|--------------------------------------------------------------|
B|-12-10--------------------------------------------------------|
G|-------12-11-12-11-9----9-----------------------------------9-|
D|---------------------12---12-9----9--------------9-------12---|
A|-------------------------------12--------9-10-12---12-10------|
E|--------------------------------------12----------------------|


E|----------------------------------------------------------------|
B|----------------------------------------------------------------|
G|----------------------------------------------------------------|     (2x)
D|------------9---------------------------------9----------9-12-9-|
A|----9-10-12---12-10-9-------9---------9-10-12---12-10-12--------|
E|-12-------------------12-12---12---12---------------------------|


E|-----------------------------------------------------------------10-12-|
B|---------10-12--10----------------------------10-12--10----10h12-------|
G|-9-11-12-----------12-11-9-9-11-9-----9-11-12-----------12-------------|(2x ou até o fim)
D|-----------------------------------------------------------------------|
A|-----------------------------------------------------------------------|
E|-----------------------------------------------------------------------|
  • 1
  • 2
  • 3
  • 4
  • 5
  • 6
  • 7
  • 8
  • 9
  • 10
  • 11
  • 12
    Acordes para:
      Colaboração e revisão:

      0 comentários

        mostrar mais comentários

        Conseguiu tocar?

        26tocaram1ainda não

        Grave um vídeo tocando Meu Pai É Rastafar-I e mande pra gente!

        00:00 / 00:00
        outros vídeos desta música
        repetirqualidadeautomática
        • automática
        Outro vídeos desta música
          00:00 / 00:00
          automática
          • automática
          Acordes para:violão e guitarra
          dificuldadeexibiçõescontribuições
          2 versões de Tab de baixoexibiçõescontribuições
          1 versão de Guitar Proformatodownloadscontribuição
          fecharplay/pause subir/descer velocidade
            Acordes para:violão e guitarra
            acordes
            fechar
            OK