Cifra Club

Aprenda

Pisando Descalço

Maneva

Tab de baixo: Principal
G|---------------------------------------------------
D|----------------------------------4------4---------  
A|-----------2-0h2-0------2-2-2-2-5----2-2---2-------  (3x)
E|-0-0-0-0-3---------3-0-----------------------3-0---

G|-----------------------------------------------------------
D|----------------------------------4-----------------2------
A|-----------2-0h2-0------2-2-2-2-5----2-1--0-0-0-0-3---5-6--
E|-0-0-0-0-3---------3-0-------------------------------------

G|---------------------------------------------------
D|---------------------------------------------------
A|-----------2-0h2-0------3-3-3-3---3--5-5-5-5---5--- (5X)
E|-0-0-0-0-3---------3-0----------3------------5-----


BASE DO SOLO
G|---------------------------------------------------
D|---------------------------------------------------
A|-----------2-0h2-0------3-3-3-3---3--5-5-5-5---5--- (2X)
E|-0-0-0-0-3---------3-0----------3------------5-----

G|-----------------------------
D|---------------4-------------
A|-----------2-2---2-----------
E|-0-0-0-0-3---------3-0-------

Volta ao ínicio
Composição de TALES DE POLLI
Colaboração e revisão:
  • Felipe Cerqueira
3.952 exibições

0 comentários

Mostrar mais comentários

Conseguiu tocar?

1 Tocaram 0 Ainda não

Grave um vídeo tocando Pisando Descalço e mande pra gente!

00:00 / 00:00
outros vídeos desta música
repetir qualidade Automático
Outros vídeos desta música
00:00 / 00:00
Automático

Cifra Club Pro

Aproveite o Cifra Club com benefícios exclusivos e sem anúncios
7 dias grátis
Cifra Club Pro
Aproveite o Cifra Club com benefícios exclusivos e sem anúncios
7 dias grátis
OK