Revol

Manic Street Preachers

Composição de: James Dean Bradfield / Nicky Wire / Richey James / Sean Moore
Track 6 - The Holy Bible 

                                                                     
G-|---------------------------------------------------------------------
D-|---------------------------------------------------------------------
A-|-----3-6-------------------------------------------------------------
E-|-3-5-----3-0-3-------------------------------------------------------
    Verse                                                                      
                                                                               
G-|---------------------------------------------------------------------
D-|---------------------------------------------------------------------
A-|-----------5-6-5-3--5-6-5-3--5-6-5-3---------------------------------
E-|-3-3-3-3-3-----------------------------------------------------------
    Chorus 

transcribed by Adam and Paul Firth  
Página 1 / 1

Letras e título
Acordes e artista

resetar configurações
OK