Bizarre Love Triangle

Manitu

tom: Bb
(intro)

E|-----------------------------------------------------------------------------|
B|--------3---------3---------3-3--------------3-----------3---------3---------|
G|----3-5-------3-5-----3-5-3-----5-3-5----3-5-------3-5-3---3-5-3-5---5-3-----|
D|--5-------5-5-------5------------------5-------5-5-----------------------5---|
A|-----------------------------------------------------------------------------|
E|-----------------------------------------------------------------------------|

E|---6-----6----------8-------8-----------5----5--------6------6-----|
B|--8-8---8-8-------10-10---10-10--------6-6--6-6------8-8----8-8----|
G|-8---8-----8--8~10-----10------10  10~7---7----7--7~8----8------8--|
D|-------------------------------------------------------------------|
A|-------------------------------------------------------------------|
E|-------------------------------------------------------------------|

D#           F
  Every time I think of you
Dm                        D#
I get a shot right through into a bolt of blue
D#           F
It's no problem of mine but it's a problem I find
Dm                        D#
Living a life that I can't leave behind

 D#           F
There's no sense in telling me
        Dm                        D#
The wisdom of a fool won't set you free
D#           F
But that's the way that it goes and it's what nobody knows
Dm                        D#
And every day my confusion grows

Ow!
E|-6-6-6-6~~~8--8--8--8~~~5-5-5-5~~~6-6-6-6---|
B|-8-8-8-8~~10-10-10-10~~~6-6-6-6~~~8-8-8-8---|
G|-8-8-8-8~~10-10-10-10~~~7-7-7-7~~~8-8-8-8---|
D|--------------------------------------------|
A|--------------------------------------------|
E|--------------------------------------------|

E|---6-----6----------8-------8-----------5----5--------6------6----|
B|--8-8---8-8-------10-10---10-10--------6-6--6-6------8-8----8-8---|
G|-8---8-----8--8~10-----10------10  10~7---7----7--7~8----8------8-|
D|------------------------------------------------------------------|
A|------------------------------------------------------------------|
E|------------------------------------------------------------------|

D#           F
Every time I see you falling
Dm                        D#
I get down on my knees and pray
D#           F
I'm waiting for that final moment
Dm                        D#
You say the words that I can't say

D#           F
I feel fine and I feel good
Dm                        D#
I feel like I never should
D#           F
Whenever I get this way I just don't know what to say
Dm                        D#
Why can't we be ourselves like we were yesterday

D#           F
I'm not sure what this could mean
Dm                        D#
I don't think you're what you seem
D#           F
I do admit to myself that if I hurt someone else
Dm                        D#
Then I'd never see just what we're meant to be

Ow!
E|-6-6-6-6~~~8--8--8--8~~~5-5-5-5~~~6-6-6-6-|
B|-8-8-8-8~~10-10-10-10~~~6-6-6-6~~~8-8-8-8-|
G|-8-8-8-8~~10-10-10-10~~~7-7-7-7~~~8-8-8-8-|
D|------------------------------------------|
A|------------------------------------------|
E|------------------------------------------|

E|---6-----6----------8-------8-----------5----5--------6------6----|
B|--8-8---8-8-------10-10---10-10--------6-6--6-6------8-8----8-8---|
G|-8---8-----8--8~10-----10------10  10~7---7----7--7~8----8------8-|
D|------------------------------------------------------------------|
A|------------------------------------------------------------------|
E|------------------------------------------------------------------|

D#           F
Every time I see you falling
Dm                        D#
I get down on my knees and pray
D#           F
I'm waiting for that final moment
Dm                        D#
You say the words that I can't say

D#           F
Every time I see you falling
Dm                        D#
I'll get down on my knees and pray
D#           F
I'm waiting for that final moment
Dm                        D#
You say the words that I can't say
Página 1 / 1

Letras e título
Acordes e artista

resetar configurações
OK