Fico a Te Esperar

Manitu

Composição de: Alexandre Maia
tom: C


Rif 1:
E|-------------1/3-1--------0-------3/5-3----------
B|--1-1-3-1-1--------1/3-1/3-3-1/3-1---------------
G|-2-2-----2-2-------------------------------------

Rif 2:
E|-8-5---------8-5---------8-5---------8-5---------
B|-----8-6-5-6-----8-6-6-5-----8-6-5-6-----8-6-6-8-
G|-------------------------------------------------

Rif 3:
E|-------------------------------------------------
B|-5--8-6-5-3--5--8-6-5-3-0-1----------------------
G|-------------------------------------------------

Rif 1

F7+                 G6
    Bem que eu tentei te convencer
F7+                G6 
    Cem motivos pra te esquecer
        F7+                          G6
O tempo passa e eu passei, a vida muda e eu mudei
           F7+             G6
Mas não me leve a mal, a barra foi forçada
         F7+             G6
Não me entenda mal, é vida na gaiola
             F7+                        G6    
Agora o que eu tenho em mente são lembranças.


Refrão: (2x)
          C              G
Agora eu fico aqui a esperar por você
          C               G
Agora eu fico aqui a reclamar por você
Rif 2
       Dm              Am         
Ainda bem, sem essa estória de casamento
       Dm              G
Ainda bem, sem esse estória de casório

Rif 3
Página 1 / 1

Letras e título
Acordes e artista

resetar configurações
OK