Un mundo nuevo

Manitu

tom: F
Intro
E|-----------0-----------0-------------1--0--1--0---------|
B|--1--3--1-----1---3--1----1--3---1----------------1-----|
G|----------------------------------------------------------------|
D|----------------------------------------------------------------|
A|----------------------------------------------------------------|
E|----------------------------------------------------------------|

E|---------------0-------------0-------------1--0-1/3/1-------|
B|--1---3---1-------1--3--1------1--3--1----------------------|
G|----------------------------------------------------------------|
D|----------------------------------------------------------------|
A|----------------------------------------------------------------|
E|-----------------------------------------------------------------|

C 
En mi corazón
solo existe una verdad
Am 
que tu serás
mi principio y mi final
F 
no se como decir
                   Bb 
lo que me haces sentir
desde el momento en que te vi
C 
despertar, saber
que no hay nadie como tu
Am 
sentir también
que yo ya te extraño y se
F 
que te quiero querer
               Bb 
me quiero envolver
en el perfume de tu piel
C 
es el momento de empezarya no daré un paso atrás
Am 
yo no te voy a defraudar
F 
porque mi amor es de verdad
C 
no tengas miedo vamos ya
Am 
dame tu mano sin dudar
F 
acompáñame a un mundo nuevo
Bb 
donde nuestro amor nos salvara

C5 -B5    Sib5/Si5-A5  x2(power chords)
C 
eres lo mejor
que a mi me ha pasado
Am 
curas el dolor
                   F 
borras el pasado y se
que te quiero querer
       Bb 
que me quiero envolver
en el perfume de tu piel

C 
es el momento de empezar
ya no daré un paso atrás
Am 
yo no te voy a defraudar
F 
porque mi amor es de verdad
C 
no tengas miedo vamos ya
Am 
dame tu mano sin dudar
F 
acompáñame a un mundo nuevo
Bb 
donde nuestro amor nos salvara

C5 -B5    Sib5/Si5-A5  x2(power chords)

C            Am 
lo daría todo sin pensar
           F 
porque nada necesito
   Bb 
si conmigo estas
C 
es el momento de empezar
Am 
ya no daré un paso atrás
nono nono uuuuu
C# 
es el momento de empezar
ya no daré un paso atrás
Am 
yo no te voy a defraudar
F# 
porque mi amor es de verdad
C# 
no tengas miedo vamos ya
Am 
dame tu mano sin dudar
F# 
acompáñame a un mundo nuevo
B 
donde nuestro amor nos salvara
donde nuestro amor nos salvara

C5 -B5    Sib5/Si5-A5  x2(power chords)
B 
donde nuestro amor nos salvara
Página 1 / 1

Letras e título
Acordes e artista

resetar configurações
OK