Cifra Club

Não Deixo Não

Mano Walter

Cifra: Principal (violão e guitarra)
exibições 703.040
Tom: G
[Intro] Am  C  G  D

     Am             C                G               D
E|---------------------------------------------------|
B|---------------------------------------------------|
G|-4-7-7-4-4-7-7-4-4-7-7-4-4-2/4-2-0-2-4-4-2/4-2-0-2-|
D|---------------------------------------------------|
A|---------------------------------------------------|
E|---------------------------------------------------|

Am                            C
Ela me fez comprar um carro
 G                       D
Logo eu que amava meu cavalo
Am                              C
Ela me fez vender meu gado
     G                       D
Pra morar num condomínio fechado

 C                     D
Me deu um tênis de presente
 Em
Falou que a botina

Não combina mais com a gente
 C                  D
Mas que menina indecente
Em
Ai não aguentei, falei

O que o coração sente

        C9                   D
Vai pro inferno, com o seu amor

 G                             D
Deixar de ser peão de ouvir modão
                      Am                     C
Meu violão, não deixo não, não deixo não
 G                             D
Largar o meu chapéu, pra usar gel
                           Am                    C
Meu Deus do céu não deixo não, não deixo não
 G                              D
Deixar de ser vaqueiro ouvir forró e ouvir modão
           Am                   C
Não deixo não, não deixo não
 G                             D
Largar o meu chapéu, pra usar gel
                          Am
Meu Deus do céu não deixo não
     C             D        G
Não tem amor que vale isso não

     Am             C                G               D
E|---------------------------------------------------|
B|---------------------------------------------------|
G|-4-7-7-4-4-7-7-4-4-7-7-4-4-2/4-2-0-2-4-4-2/4-2-0-2-|
D|---------------------------------------------------|
A|---------------------------------------------------|
E|---------------------------------------------------|

     Am             C                G               D
E|---------------------------------------------------|
B|---------------------------------------------------|
G|-4-7-7-4-4-7-7-4-4-7-7-4-4-2/4-2-0-2-4-4-2/4-2-0-2-|
D|---------------------------------------------------|
A|---------------------------------------------------|
E|---------------------------------------------------|

Am                            C
Ela me fez comprar um carro
 G                       D
Logo eu que amava meu cavalo
Am                              C
Ela me fez vender meu gado
     G                       D
Pra morar num condomínio fechado

 C                     D
Me deu um tênis de presente
 Em
Falou que a botina

Não combina mais com a gente
 C                  D
Mas que menina indecente
Em
Ai não aguentei, falei

O que o coração sente

        C9                   D
Vai pro inferno, com o seu amor

 G                             D
Deixar de ser peão de ouvir modão
                      Am                     C
Meu violão, não deixo não, não deixo não
 G                             D
Largar o meu chapéu, pra usar gel
                           Am                    C
Meu Deus do céu não deixo não, não deixo não
 G                              D
Deixar de ser vaqueiro ouvir forró e ouvir modão
           Am                   C
Não deixo não, não deixo não
 G                             D
Largar o meu chapéu, pra usar gel
                          Am
Meu Deus do céu não deixo não
     C             D        G
Não tem amor que vale isso não

        C9                   D
Vai pro inferno, com o seu amor

 G                             D
Deixar de ser peão de ouvir modão
                      Am                     C
Meu violão, não deixo não, não deixo não
 G                             D
Largar o meu chapéu, pra usar gel
                           Am                    C
Meu Deus do céu não deixo não, não deixo não
 G                              D
Deixar de ser vaqueiro ouvir forró e ouvir modão
           Am                   C
Não deixo não, não deixo não
 G                             D
Largar o meu chapéu, pra usar gel
                          Am
Meu Deus do céu não deixo não
     C             D        G
Não tem amor que vale isso não

     Am             C                G               D
E|---------------------------------------------------|
B|---------------------------------------------------|
G|-4-7-7-4-4-7-7-4-4-7-7-4-4-2/4-2-0-2-4-4-2/4-2-0-2-|
D|---------------------------------------------------|
A|---------------------------------------------------|
E|---------------------------------------------------|

Am                            C
Ela me fez comprar um carro
 G                       D
Logo eu que amava meu cavalo

[Final] Am  C  G  D
Acordes para:

    0 comentários

      mostrar mais comentários

      Conseguiu tocar?

      79tocaram19ainda não

      Grave um vídeo tocando Não Deixo Não e mande pra gente!

      00:00 / 00:00
      outros vídeos desta música
      repetirqualidadeAutomático
      Outro vídeos desta música
        00:00 / 00:00
        OK