Cifra Club

Não Deixo Não

Mano Walter

Cifra: Principal (violão e guitarra)
exibições 765.599
Tom: G
[Intro] Am  G/B  C  G  D

E|---------------------------------------------------|
B|---------------------------------------------------|
G|-4-7-7-4-4-7-7-4-4-7-7--2/4-2-0-2-4-4-2/4-2-0-2----|
D|---------------------------------------------------|
A|---------------------------------------------------|
E|---------------------------------------------------|

Am        G/B  C
  Ela me fez     comprar um carro
 G                       D
Logo eu que amava meu cavalo
Am        G/B  C
  Ela me fez     vender meu gado
     G                       D
Pra morar num condomínio fechado

[Pré-Refrão]

C                       D
 Me deu um tênis de presente
   Em
Falou que a botina
Não combina mais com a gente
C                    D
 Mas que menina indecente
 Em
Aí não aguentei, falei
O que o coração sente

              C9             D
Vai pro inferno, com o seu amor

[Refrão]

    G                          D
Deixar de ser peão de ouvir modão
                       Am             C
Meu violão, não deixo não, não deixo não
    G                          D
Largar o meu chapéu, pra usar gel
                           Am             C
Meu Deus do céu não deixo não, não deixo não
    G                            D
Deixar de ser vaqueiro ouvir forró e ouvir modão
           Am             C
Não deixo não, não deixo não
    G                          D
Largar o meu chapéu, pra usar gel
                           Am
Meu Deus do céu não deixo não
     C            D         G
Não tem amor que vale isso não

[Solo] D  Am  C  D
       G  D  Am  C  D

E|---------------------------------------------------|
B|---------------------------------------------------|
G|-4-7-7-4-4-7-7-2-2-7-7-2-2-2/4-2-0-2-0-------------|
D|---------------------------------------2-----------|
A|---------------------------------------------------|
E|---------------------------------------------------|

E|---------------------------------------------------|
B|---------------------------------------------------|
G|-4-7-7-4-4-7-7-2-2-7-7-2-2-2/4-2-0-2-0-------------|
D|---------------------------------------2-----------|
A|---------------------------------------------------|
E|---------------------------------------------------|

Am        G/B  C
  Ela me fez     vender meu gado
     G                       D
Pra morar num condomínio fechado

[Pré-Refrão]

C                       D
 Me deu um tênis de presente
   Em
Falou que a botina
Não combina mais com a gente
C                    D
 Mas que menina indecente
 Em
Aí não aguentei, falei
O que o coração sente

              C9             D
Vai pro inferno, com o seu amor

[Refrão]

    G                          D
Deixar de ser peão de ouvir modão
                       Am             C
Meu violão, não deixo não, não deixo não
    G                          D
Largar o meu chapéu, pra usar gel
                           Am             C
Meu Deus do céu não deixo não, não deixo não
    G                            D
Deixar de ser vaqueiro ouvir forró e ouvir modão
           Am             C
Não deixo não, não deixo não
    G                          D
Largar o meu chapéu, pra usar gel
                           Am
Meu Deus do céu não deixo não
     C            D
Não tem amor que vale isso não

[Solo] Am  G/B  C  G  D

E|---------------------------------------------------|
B|---------------------------------------------------|
G|-4-7-7-4-4-7-7-4-4-7-7--2/4-2-0-2-4-4-2/4-2-0-2----|
D|---------------------------------------------------|
A|---------------------------------------------------|
E|---------------------------------------------------|

Am        G/B  C
  Ela me fez     comprar um carro
 G                       D
Logo eu que amava meu cavalo

[Final] Am  C  G  D
        Am  C  G  D
        Am  G/B  C  G  D
Acordes para:

    0 comentários

    mostrar mais comentários

    Conseguiu tocar?

    88 tocaram 29 ainda não

    Grave um vídeo tocando Não Deixo Não e mande pra gente!

    00:00 / 00:00
    outros vídeos desta música
    repetir qualidade Automático
    Outro vídeos desta música
    00:00 / 00:00
    Automático
    OK