Blow Your Speakers

Manowar

Composição de: Joey DeMaio
tom: D
Riff 1

Guitar 1

|----------------------------------------------------------------------------|
|--------3----------3--------------------------------------------------------|
|-2------2---2------2--------------------------------------------------------|
|-2--0h2-0---2--0h2-0--------------------------------------------------------|
|-0----------0---------------------------------------------------------------|
|----------------------------------------------------------------------------|


Guitar 2

|--------------5-5-5-5-------------------------------------------------------|
|--------------5-5-5-5-------------------------------------------------------|
|-----------------------7(9)-------------------------------------------------|
|----------------------------------------------------------------------------|
|-----------------------------0\---------------------------------------------|
|----------------------------------------------------------------------------|



Repeat Riff 1 once and then:


Guitar 1

|----------------------------------------------------------------------------|
|--------3----------3--------------------------------------------------------|
|-2------2---2------2----7---5-------------------------------------------------|
|-2--0h2-0---2--0h2-0----7---5-------------------------------------------------|
|-0----------0-----------5---3-------------------------------------------------|
|----------------------------------------------------------------------------|




     A.H

 |------------------|

|----------------------------------------------------------------------------|
|--8-7-5-------8-7-5---------------------------------------------------------|
|--------5-4-2---------------------------------------------------------------|
|----------------------------------------------------------------------------|
|----------------------------------------------------------------------------|
|----------------------------------------------------------------------------|



CHORUS(2nd with Fill)            fill

|-------------------------------|A.H-----------------------------------------|
|-------------------------------|-8------------------------------------------|
|-5--2-----2-------------5---5/7|--------------------------------------------|
|-5--2--5--2-------------5---5/7|--------------------------------------------|
|-3--0--5--0-0-0-0-0-0-0-3-0-3/5|--------------------------------------------|
|-------3-----------------------|--------------------------------------------|


2xT    T    T    T    T    T    T    T     T     T     T     T     T

|-12p9-12p9-12p9-12p9-12p9-12p9-12p9-12p9--14p10-14p10-14p10-14p10-14p10-----|
|----------------------------------------------------------------------------|
|----------------------------------------------------------------------------|
|----------------------------------------------------------------------------|
|----------------------------------------------------------------------------|
|----------------------------------------------------------------------------|
  T     T     T

|-14p10-14p10-14p10----------------------------------------------------------|
|----------------------------------------------------------------------------|
|----------------------------------------------------------------------------|
|----------------------------------------------------------------------------|
|----------------------------------------------------------------------------|
|----------------------------------------------------------------------------|

|----------------------------------------------------------------------------|
|------------3-3-----3-------------------------------------------------------|
|-2-2-----2--2-2-----2---...to chorus----------------------------------------|
|-2-2-----2--0-0-----0-------------------------------------------------------|
|-0-0-----0------3-5---------------------------------------------------------|
|-----3-5--------------------------------------------------------------------|


SOLO 

|--------------15-14-12----20-19-17------------------------------------------|
|----18----------------------------------------------------------------------|
|----17(19)----12-11-9-----17-16-14------12-11-------------------------------|
|----------------------------------------------14-12-10-12-------------------|
|----------------------------------------------------------12-10-9-----------|
|----------------------------------------------------------------------------|

|----------------------------------------------------------------------------|
|-12p10h12p10h12p10h12p10h13p10h12p10h13p10h12p10h13p10h12p10h13p10/15-------|
|----------------------------------------------------------------------------|
|----------------------------------------------------------------------------|
|----------------------------------------------------------------------------|
|----------------------------------------------------------------------------|
 
|-12p15h12p17p12h15p12h17p12h15p12h17p12h15(17)-12h15p12-20(22)-20(22)-20(22)|
|----------------------------------------------------------------------------|
|----------------------------------------------------------------------------|
|----------------------------------------------------------------------------|
|----------------------------------------------------------------------------|
|----------------------------------------------------------------------------|

|----------------------------------------------------------------------------|
|----------------------------------------------------------------------------|
|-Slide-up-some-strings-and-bend-up...---------------------------------------|
|----------------------------------------------------------------------------|
|----------------------------------------------------------------------------|
|----------------------------------------------------------------------------|
Página 1 / 1

Letras e título
Acordes e artista

resetar configurações
OK