Cifra Club

La gran capital

Manuel Garcia

Cifra: Principal (violão e guitarra)
tom: A

E|--5-7-8--5/7-5---------------------5h4h5-8h7h8--|
B|---------------8-7-5-4h3h4--7h6h7---------------|
G|------------------------------------------------|
D|------------------------------------------------|
A|------------------------------------------------|
E|------------------------------------------------|

E|--5-7-8--5/7-5----------------------------------|
B|---------------8-7-5-4--4h5h4-7-8---------------|
G|------------------------------------------------|
D|------------------------------------------------|
A|------------------------------------------------|
E|------------------------------------------------|

E|----7-8--5/7-5---------------------5h4h5-8h7h8--|
B|---------------8-7-5-4h3h4--7h6h7---------------|
G|------------------------------------------------|
D|------------------------------------------------|
A|------------------------------------------------|
E|------------------------------------------------|

     D    D/M I  D/F#   D/M I
E|---5------x------x-------2-------|
B|---7------7------7-------3-------|
G|---7------7------7-------2-------|
D|---7------7------7-------0-------|
A|---5------7------9-------x-------|
E|---5------x------x-------x-------|
Composição de Manuel Garcia
2 exibições
    • ½ Tom
    • A
    • Bb
    • B
    • C
    • Db
    • D
    • Eb
    • E
    • F
    • F#
    • G
    • Ab
  • Adicionar à lista

    0 comentários

    Ver todos os comentários

    Conseguiu tocar?

    0 Tocaram 0 Ainda não

    Grave um vídeo tocando La gran capital e nos envie!

    00:00 / 00:00
    Outros vídeos desta música
    Repetir Qualidade Automático
    Outros vídeos desta música
    00:00 / 00:00
    Automático

    Cifra Club Pro

    Aproveite o Cifra Club com benefícios exclusivos e sem anúncios
    Cifra Club Pro
    Aproveite o Cifra Club com benefícios exclusivos e sem anúncios
    OK