Cifra Club

Não Tenho o Dom

Marcela Taís

Cifra: Principal
exibições 117.319
Tom: C
Intro: C  G/B  Am7  F9

        C                         G/B
E|--------------------------------------------------------------
B|--------------------------------------------------------------       
G|--------------------------------------------------------------
D|--2-2-2-3-3-3-5-5-5-3p2-3-3p2----2-2-2-3-3-3-5-5-5-3p2-3--3p2-
A|--3-3-3-3-3-3-3-3-3-3---3-3------2-2-2-2-2-2-2-2-2-2---2--2---
E|--------------------------------------------------------------
        Am                          F
E|---------------------------------------------------------------
B|----------------------------------------1-------1---------1----       
G|--------------- --------------------0-0------0--------0--------
D|--2-2-2-3-3-3-5-5-5-3p2-3-3p2-------3-----3-------3------------   
A|--0-0-0-0-0-0-0-0-0-0---0-0---------3--------------------------
E|---------------------------------------------------------------
      F
E|----------------------------------------------------------------
B|----------1----------1------------------------------------------
G|-------0---------0----------------------------------------------
D|----3--------3--------------------------------------------------
A|----------------------------------------------------------------
E|----------------------------------------------------------------

        


Solo:
     C              G/B           Am7            F
E|----------------------------------------------------------------
B|-------8--6--5-------8--6--5------8---6---5--5/6----------------
G|--5--------------4-------------2--------------------------------
D|----------------------------------------------------------------
A|----------------------------------------------------------------
E|----------------------------------------------------------------

      F
E|----13--12--10--12----------------------------------------------
B|----------------------------------------------------------------
G|----------------------------------------------------------------
D|----------------------------------------------------------------
A|----------------------------------------------------------------
E|----------------------------------------------------------------


C
  Eu ficaria para sempre aqui
G/B
   Se tu me escutas então falo a ti
Am7                                  F
   Se não lhe vejo não o deixo de sentir
                                 C/G
E se me laças eu não quero mais sair
G/B                   Am7      F
    Eu ficaria sempre aqui
C                                  G/B
  Se por acaso eu não conseguir dizer
                             Am7
Foi sua perfeição que me fez calar
                            F
Queria com palavras te impressionar
C                       G/B
  Mas eu não tenho o dom
                 Am7               F
Não tenho este dom com as palavras,
C                      G/B
  Não, não tenho este dom
                    Am7
Não, não tenho este dom
            F
Com as palavras
C
  Se fico aqui não penso mais em mim
G/B
  Eu tô tentando me declarar
Am7               F
  E, se vais ouvir, então eu calo
           C
O coração vai lhe dizer
                          G/B
Eu não tenho o dom das palavras
  Am7
Mas o coração
              F
Ele vai lhe dizer

Vai lhe dizer, lhe dizer
Ele vai... (é ele quem vai lhe dizer).
Acordes para:
    Colaboração e revisão:

    0 comentários

      mostrar mais comentários

      Conseguiu tocar?

      22tocaram1ainda não

      Grave um vídeo tocando Não Tenho o Dom e mande pra gente!

      00:00 / 00:00
      outros vídeos desta música
      repetirqualidadeautomática
      Outro vídeos desta música
        00:00 / 00:00
        automática
        OK