Enviar cifraEntrar

Não Tenho o Dom

Marcela Taís

Cifra: Principal
exibições 93.855
Tom: C
Intro: C  G/B  Am7  F9


       C                         G/B
E|---------------------------------------------------------------
B|---------------------------------------------------------------
G|---------------------------------------------------------------
D|-----2----3----5----3-2-3-2-------2-----3-----5----3-2-3-2-----
A|--3-3--3-3--3-3--33----------3-2-2---2-2---2-2--22-------------
E|---------------------------------------------------------------


        Am7                            F9
E|--------------------------------------------------------------
B|-------------------------------------1------1------1-----1----
G|-----------------------------------0---0------0------0-----0--
D|-------2----3----5----3-2-3-2----3-------3------3------3-----3
A|--2-0-0--0-0--0-0--00-----------------------------------------
E|--------------------------------------------------------------


       C                         G/B
E|---------------------------------------------------------------
B|---------------------------------------------------------------
G|---------------------------------------------------------------
D|-----2----3----5----3-2-3-2-------2-----3-----5----3-2-3-2-----
A|--3-3--3-3--3-3--33----------3-2-2---2-2---2-2--22-------------
E|---------------------------------------------------------------


        Am7                            F9
E|---------------------------------------------------1--0------
B|-------------------------------------1------1------------3---
G|-----------------------------------0---0------0--------------
D|-------2----3----5----3-2-3-2----3-------3------3------------
A|--2-0-0--0-0--0-0--00----------------------------------------
E|-------------------------------------------------------------



Solo:

                C                     G/B                     Am7
E|----------------------------------------------------------------
B|----------------------------------------------------------------
G|--5----/----9----12--10--9----/----4-----12--10--9----/----2----
D|----------------------------------------------------------------
A|----------------------------------------------------------------
E|----------------------------------------------------------------


               F9                      C
E|-----------------------13--12--10--12---------------------------
B|--8--6--5--6----------------------------------------------------
G|----------------------------------------------------------------
D|----------------------------------------------------------------
A|----------------------------------------------------------------
E|----------------------------------------------------------------



C
  Eu ficaria para sempre aqui
G/B
   Se tu me escutas então falo a ti
Am7                                  F
   Se não lhe vejo não o deixo de sentir
                                 C/G
E se me laças eu não quero mais sair
G/B                   Am7      F
    Eu ficaria sempre aqui
C                                  G/B
  Se por acaso eu não conseguir dizer
                             Am7
Foi sua perfeição que me fez calar
                            F
Queria com palavras te impressionar
C                       G/B
  Mas eu não tenho o dom
                 Am7               F
Não tenho este dom com as palavras,
C                      G/B
  Não, não tenho este dom
                    Am7
Não, não tenho este dom
            F
Com as palavras
C
  Se fico aqui não penso mais em mim
G/B
  Eu tô tentando me declarar
Am7               F
  E, se vais ouvir, então eu calo
           C
O coração vai lhe dizer
                          G/B
Eu não tenho o dom das palavras
  Am7
Mas o coração
              F
Ele vai lhe dizer

Vai lhe dizer, lhe dizer
Ele vai... (é ele quem vai lhe dizer).
  • 1
  • 2
  • 3
  • 4
  • 5
  • 6
  • 7
  • 8
  • 9
  • 10
  • 11
  • 12
    Acordes para:
      Colaboração e revisão:

      0 comentários

        mostrar mais comentários

        Conseguiu tocar?

        16tocaram1ainda não

        Grave um vídeo tocando Não Tenho o Dom e mande pra gente!

        00:00 / 00:00
        outros vídeos desta música
        repetirqualidadeautomática
        • automática
        Outro vídeos desta música
          00:00 / 00:00
          automática
          • automática
          Acordes para:violão e guitarra
          dificuldadeexibiçõescontribuições
          fecharplay/pause subir/descer velocidade
            acordes
            fechar
            OK
            Feedback