Cifra Club

Tudo Bem, Tanto Faz

Marcelo Jeneci

Cifra: Principal (violão e guitarra)
tom: A
Introdução A G#m F#m E

E|----------------------------|
B|----2---2---2--2-----2---2--|
G|--2---2---2---2-2--1---1----|
D|----------------------------|
A|--0-------------------------|
E|-------------------4--------|

----------------------------|
----2--2----2---2---2--2----|
--1---1-1-------------------|
----------4---4---4---4-4---|
----------------------------|
----------2-----------------|

-------------------------|
----0---0---0--0---------|
--1---1---1---1-1------1-|
-------------------2-4---|
-------------------------|
--0----------------------|

A
Não sai
E6/G#
Por quê?
F#m         E
Tem tanto e-mail pra responder
A       E6/G#
Não vem ninguém
F%m      E
E sempre tem trabalho também

Bm       A      E             E7
  Um dia a mais pra ele tanto faz

A
Sair?
E6/G#
Pra quê?
F#m     E
Prefere só ligar a TV
A      E6/G#
Jornal pra ler
F#m        E
E aquele amor, melhor esquecer


Bm     A            E6/G#
Um mês a mais tanto faz
          F#m
Dorme em paz
Se a noite passar
D       A               E6/G#
Se o sol brilhar tanto faz
            F#m
Se o tempo ir
Se o mundo acabar
D         A
Se o céu cair
E
Se o mar se erguer um tsunami
                            F#   A
Um terremoto só pra ele acordar
 B
Acordar

Vocalização: ( F# A B F# ) 4x


A
Não sai?
E6/G#
Por quê?
F#m         E
Tem tantas coisas pra resolver
A       E6/G#
Não vem ninguém
F#m        E
Mas sempre diz

             A         E
Que tá tudo bem, tudo bem
      A         E
Tudo bem, tudo bem.
           A         E
Está tudo bem, tudo bem
      A         E
Tudo bem, tudo bem

Final: ( A  E   A  E  ) 2x
       ( A E/G# A E/B ) 1x
         A   E   A ...
Composição de Arnaldo Antunes / Laura Lavieri / Marcelo Jeneci
Colaboração e revisão:
  • David Freitas
  • Eduardo Pereira
4.623 exibições
    • ½ Tom
    • A
    • Bb
    • B
    • C
    • Db
    • D
    • Eb
    • E
    • F
    • F#
    • G
    • Ab
  • Adicionar à lista

    0 comentários

    Ver todos os comentários

    Conseguiu tocar?

    1 Tocaram 0 Ainda não

    Grave um vídeo tocando Tudo Bem, Tanto Faz e nos envie!

    00:00 / 00:00
    Outros vídeos desta música
    Repetir Qualidade Automático
    Outros vídeos desta música
    00:00 / 00:00
    Automático

    Cifra Club Pro

    Aproveite o Cifra Club com benefícios exclusivos e sem anúncios
    Cifra Club Pro
    Aproveite o Cifra Club com benefícios exclusivos e sem anúncios
    OK