Cifra Club

Eu Amo Você

Marco Henrique e Pietro

Cifra: Principal (violão e guitarra)
tom: D
     Bm            G          D         A
No calor do seu abraço eu me sinto tão bem
E|-----------------------------------------------------------|
B|-----------------------------------------------------------|
G|-----------------------------------------------------------|
D|--2--------------------------------------------------------|
A|-----4--2--0--2--------------------------------------------|
E|-----------------------------------------------------------|
       Bm           G          D              A
Quero você do meu lado, pois amor pra mim eu sei que tem
E|-----------------------------------------------------------|
B|-----------------------------------------------------------|
G|-----------------------------------------------------------|
D|--------2--------------------------------------------------|
A|--0--2-----4--2--0--2--------------------------------------|
E|-----------------------------------------------------------|
   Bm            G        D              A       Bm
Alegria que me passa, me faz querer-te cada vez mais
E|-----------------------------------------------------------|
B|-----------------------------------------------------------|
G|-----------------------------------------------------------|
D|--4-4-4--0-0-0---------------------------------------------|
A|----------------2-2-2--0-0-0-------------------------------|
E|------------------------------2--3-------------------------|
     Bm           G            D         A            Bm
Tô cansado de aventura, como você eu encontrei minha paz

Refrão:
Bm       G    D     A                   Bm             G      D  A
Você me faz quer mudar, querer sempre estar perto de você
Bm       G    D       A              Bm     G                D
Você me faz querer crescer, querer viver contigo a cada amanhecer
Bm       G     D             A            D
Você me faz querer, cada dia mais amar você

       Bm          G           D         A
Diante das dificuldades que iremos enfrentar
E|-----------------------------------------------------------|
B|-----------------------------------------------------------|
G|-----------------------------------------------------------|
D|--2--------------------------------------------------------|
A|-----4--2--0--2--------------------------------------------|
E|-----------------------------------------------------------|
       Bm           G           D                A
Nosso amor é de verdade, farei tudo pra nunca acabar
E|-----------------------------------------------------------|
B|-----------------------------------------------------------|
G|-----------------------------------------------------------|
D|--------2--------------------------------------------------|
A|--0--2-----4--2--0--2--------------------------------------|
E|-----------------------------------------------------------|
      Bm            G          D         A         Bm
Seu sorriso é uma graça, não parava a sensação de voar
E|-----------------------------------------------------------|
B|-----------------------------------------------------------|
G|-----------------------------------------------------------|
D|--4-4-4--0-0-0---------------------------------------------|
A|----------------2-2-2--0-0-0-------------------------------|
E|------------------------------2--3-------------------------|
          Bm           G             D        A       Bm
Eu tava assim meio perdido, mas um anjo veio pra me salvar

Refrão:
Bm       G    D     A                   Bm             G      D  A
Você me faz quer mudar, querer sempre estar perto de você
Bm       G    D       A              Bm     G                D
Você me faz querer crescer, querer viver contigo a cada amanhecer
Bm       G     D             A            D
Você me faz querer, cada dia mais amar você
Composição de Pietro
Colaboração e revisão:
  • Luiz Bispo
150 exibições
    • ½ Tom
    • A
    • Bb
    • B
    • C
    • Db
    • D
    • Eb
    • E
    • F
    • F#
    • G
    • Ab
  • Adicionar à lista

    0 comentários

    Ver todos os comentários

    Conseguiu tocar?

    0 Tocaram 0 Ainda não

    Grave um vídeo tocando Eu Amo Você e nos envie!

    00:00 / 00:00
    Outros vídeos desta música
    Repetir Qualidade Automático
    Outros vídeos desta música
    00:00 / 00:00
    Automático

    Cifra Club Pro

    Aproveite o Cifra Club com benefícios exclusivos e sem anúncios
    Cifra Club Pro
    Aproveite o Cifra Club com benefícios exclusivos e sem anúncios
    OK