Cifra Club

Aprenda

Dor de Amor Não Tem Jeito

Marco e Mario

Cifra: Principal (violão e guitarra)
tom: F#
(intro/solo) C# A#m F# G# C#    G#7 F# C#

E|-----------------------------------------------------------------------------------
A|-----------------------------------------------------------------------------------
D|-------------------------------------------------------------------4-2/3-----------
G|---1------------1-------------------------------------------3-1-3-1----------------
B|-2---2-2/4----2---2-2/4-------6h7-7-7-6-4-2-1-1h4-2-----1--------------------------
E|-----------4-------------4---------------------------------------------------------

C#       G#         F#
  Você fugiu das minhas mãos
C#       G#           F#
  E mergulhou noutras paixões
C#          G#       F#
  Deixou pra mim a solidão
C#          G#       F#
  E mesmo assim meu coração
        G#
  Ainda quer você por perto
      G#7
  Não sei se isso é certo
               C#  G# F#
  Eu quero te odiar

                   C#
  Eu sei que eu te amo
      A#m         F#
  Eu sinto que te amo
      G#            C#  B C#
  Mas não quero te amar

F#            C#
  Tentei te trocar por alguém
F#               C#
  Mas não sei gostar de ninguém
A#m           Fm            F#
  A magia do amor me enfeitiçou
      G#          C#  F# G#
  Não sei te esquecer

  C#            A#m
  Na madrugada, luz apagada
  F#             G#      C#  G#
  Tudo o que eu vejo é você
  C#                   A#m
  Milhões de estrelas, dentro do peito
  F#      G#           C#   G#
  Dor de amor não tem jeito

(intro/solo) C# A#m F# G# C# G# C# A#m F# G# C# C#7

E|-----------------------------------------------------------------------------------
A|-----------------------------------------------------------------------------------
D|-----------------------------------------------------------------------------------
G|---1------------1------------------------------3-3p1-1-----------------------------
B|-2---2-2/4-2---2---2-2/4-------6h7-7-7-6-4-2-1-------------------------------------
E|-------------------------4---------------------------------------------------------

E|-----------------------------------------------------------------------------------
A|-----------------------------------------------------------------------------------
D|-----------------------------------------------------------------------------------
G|---1------------1----------------------------------------------------1/3-----------
B|-2---2-2/4-2---2---2-2/4-------6h7-7-7-6-4-2-1-1h4-2--------2-1-0-2----------------
E|-------------------------4---------------------------------------------------------

F#            C#
  Tentei te trocar por alguém...
Compositor não encontrado.
Colaboração e revisão:
  • Rodrigo Oliveira
1.658 exibições
    • ½ Tom
    • A
    • Bb
    • B
    • C
    • Db
    • D
    • Eb
    • E
    • F
    • F#
    • G
    • Ab
  • Adicionar à lista

    0 comentários

    Ver todos os comentários

    Conseguiu tocar?

    0 Tocaram 0 Ainda não

    Grave um vídeo tocando Dor de Amor Não Tem Jeito e nos envie!

    00:00 / 00:00
    Outros vídeos desta música
    Repetir Qualidade Automático
    Outros vídeos desta música
    00:00 / 00:00
    Automático

    Cifra Club Pro

    Aproveite o Cifra Club com benefícios exclusivos e sem anúncios
    Cifra Club Pro
    Aproveite o Cifra Club com benefícios exclusivos e sem anúncios
    OK