Cifra Club

Aprenda

Eu Quero Te Amar

Marco e Mario

Cifra: Principal (violão e guitarra)
tom: E
Introdução: B,G#m,E,C#m,F#,B,G#m,E

E |-------------------------------------------------------------------------------
B |-------------------------------------------------------------------------------
G |-4-4---4---6/8---4-4---4---6/8---4-4---4---4-6-6/8/9-9-9-9-8-6-4-4p6-4---------
D |-----6---6-----------6---6-----------6---6-------------------------------------
A |-------------------------------------------------------------------------------
E |-------------------------------------------------------------------------------

E |-------------------------------------------------------------------------------
B |-------------------------------------------------------------------------------
G |-4-4---4---6/8---4-4---4---6/8------4/3-----4-4--------------------------------
D |-----6---6-----------6---6------6/2-----4p6------------------------------------
A |-------------------------------------------------------------------------------
E |-------------------------------------------------------------------------------

B                     G#m                     E
Bem que a mamãe me falou pra eu não me apaixonar
           C#m     F#   B                  G#m             E
Mais rolou sem querer,   quando você me olhou não pude evitar
                C#m
Já era tarde demais .
              G#m                       E
Preciso te dizer o que eu já disse no olhar
                          F#
E sobre os planos que eu tenho pra nós dois

Refrão:
     E   F#   B                   G#m
Eu quero te amar, e vou te conquistar
                   E            C#m    F#       B
Eu sei que vai gostar de mim eu já gostei de você
                G#m
Eu vi no seu olhar
                  E             C#m    F      B
Não da pra disfarçar as coisas do coração eu sei
                G#m               E
que se você deixar eu vou te namorar  e cuidar de você
    F#            E    F#   B
Com todo amor eu quero te amar

Solo: B,G#m,E,C#m,F#,B,G#m,E

E |-------------------------------------------------------------------------------
B |-------------------------------------------------------------------------------
G |-4-4---4---6/8---4-4---4---6/8---4-4---4---4-6-6/8/9-9-9-9-8-6-4-4p6-4---------
D |-----6---6-----------6---6-----------6---6-------------------------------------
A |-------------------------------------------------------------------------------
E |-------------------------------------------------------------------------------

E |-------------------------------------------------------------------------------
B |-------------------------------------------------------------------------------
G |-4-4---4---6/8---4-4---4---6/8------4/3-----4-4--------------------------------
D |-----6---6-----------6---6------6/2-----4p6------------------------------------
A |-------------------------------------------------------------------------------
E |-------------------------------------------------------------------------------

B                G#m                    E
Alguém já te contou que você é linda demais
          C#m    F#    B
Se não contou eu conto
                   G#m                   E
E é de alguém como eu que você vai precisar
                         C#m
Pra realizar seus sonhos
             G#m                         E
Preciso te dizer o que eu já disse no olhar
                         F#
E sobre os planos que eu tenho pra nois dois

refrao:

    E    F#   B                    G#m
Eu quero te amar, e vou te conquistar
                  E             C#m    F#       B
Eu sei que vai gostar de min eu já gostei de você
               G#m
Eu vi no seu olhar
                  E            C#m     F#     B
Não da pra disfarçar as coisas do coração eu sei
               G#m                            E
Que se você deixar eu vou te namorar e cuidar de você
       F#           E
Como todo amor por que

      E  F#    B                  G#m
Eu quero te amar, e vou te conquistar
                   E            C#m    F#       B
Eu sei que vai gostar de mim eu já gostei de você
                G#m
Eu vi no seu olhar
                  E            C#m     F#
Não da pra disfarçar as coisas do coração
       B               G#m                            E
Eu sei que se você deixar eu vou te namorar  e cuidar de você
    F#            E    F#   B     G#m            E
Com todo amor eu quero te amaaaaaaaaaa       eeeee
    E     F#         B          G#m            E              B
Eu quero te amaaaaaaaaaaaaaaaaaaaaa eeeeeeeeeeee.

G |-------4/3------4----
D |--6/2------4p6------
Composição de Marco / Mário
Colaboração e revisão:
  • rollander sa
  • Manfriny Pereira
  • Renan Duarte
15.110 exibições
    • ½ Tom
    • A
    • Bb
    • B
    • C
    • Db
    • D
    • Eb
    • E
    • F
    • F#
    • G
    • Ab
  • Adicionar à lista

    0 comentários

    Ver todos os comentários
    00:00 / 00:00
    Outros vídeos desta música
    Repetir Qualidade Automático
    Outros vídeos desta música
    00:00 / 00:00
    Automático

    Cifra Club Pro

    Aproveite o Cifra Club com benefícios exclusivos e sem anúncios
    Cifra Club Pro
    Aproveite o Cifra Club com benefícios exclusivos e sem anúncios
    OK