Cifra Club

Aprenda

Meu Coração Só Quer Você

Marco e Mario

Cifra: Principal (violão e guitarra)
tom: D
(intro)  D A Bm G

E|-----------------------------------------------------------------
A|-----------------------------------------------------------------
D|---4h5-------------------4-5-------------------------------------
G|--------2-2-------2-2h4-------2-4-2-4-2-4-----2------------------
B|-------------5-2---------------------------3---------------------
E|-----------------------------------------------------------------

E|-----------------------------------------------------------------
A|-----------------------------------------------------------------
D|---4h5----------------------4-5----------------------------------
G|--------2-2---------------------2-4-2-4-2-4----------------------
B|-------------5-2-5-5/7-5-3---------------------------------------
E|-----------------------------------------------------------------
                                             Em
Eu já pelejei pra arrumar uma paixão pro meu coração
     G                                              D             A
Mas ele sempre arranja, um motivo, um defeito pra dizer que não
   Bm          F#m         Bm
E fica aqui sonhando com você,
 Em                   G
Tentando entender por que,
                A              A7         D
Sem saber o que é que eu vou fazer agora
      A                 Bm
Meu coração só quer você
         G              D
Mas tem medo de se enganar
       A              Bm
Me apavora com esse louco amor
       G                       D
Que ele tem guardado pra te dar
 A      Bm      G     D A Bm G (2x)
Aa  aa  Aaaaaaaaa       (solo)
Composição de Mário
Colaboração e revisão:
  • Rodrigo Oliveira
2.422 exibições
    • ½ Tom
    • A
    • Bb
    • B
    • C
    • Db
    • D
    • Eb
    • E
    • F
    • F#
    • G
    • Ab
  • Adicionar à lista

    0 comentários

    Ver todos os comentários

    Conseguiu tocar?

    0 Tocaram 0 Ainda não

    Grave um vídeo tocando Meu Coração Só Quer Você e nos envie!

    00:00 / 00:00
    Outros vídeos desta música
    Repetir Qualidade Automático
    Outros vídeos desta música
    00:00 / 00:00
    Automático

    Cifra Club Pro

    Aproveite o Cifra Club com benefícios exclusivos e sem anúncios
    Cifra Club Pro
    Aproveite o Cifra Club com benefícios exclusivos e sem anúncios
    OK