Vou Te Amar Demais

Marco e Mario

Composição de: Mário
tom: D
Introdução: A,E,F#m,D 2x

E |------------------------------------------------------------
B |-----5---5-5/7--7/9-5-0-2-3-2-3-2---------------------------
G |-2/6---6---------------------------2---2--------------------
D |-------------------------------------4---2------------------
A |------------------------------------------------------------
E |------------------------------------------------------------

E |---------------------------------------------------------4----------------------
B |----------5-----5-5/7-7/9-5-0-2-3-2-3-2---------3/5--3/5---5--3--2--------------
G |--2-4-4/6----6---------------------------2---2----------------------4--2--------
D |-------------------------------------------4------------------------------------
A |--------------------------------------------------------------------------------
E |--------------------------------------------------------------------------------

A                       E
Se é só pra brincar com meu amor
     D        E
Então vá pode ir
D    E    A                   E
Mais se quer amor sincero de verdade
      D        E
Então vem pode vir

A                      E
Se é só pra brincar com meu amor
      D       E
Então vá pode ir
D    E   A                    E
Mais se quer amor sincero de verdade
      D        E
Então vem pode vir
   Db7                           D
Eu te mostro as verdades do meu coração
D    F#m7      Bm
Não tenha medo não
   E
Porque

refrao: 4x
                 A   E
Eu vou te amar demais
              D     E
Vou te amar demais

solo:A - E - D - E

E |---------------------------------------------------------4----------------------
B |----------5-----5-5/7-7/9-5-0-2-3-2-3-2---------3/5--3/5---5--3--2--------------
G |--2-4-4/6----6---------------------------2---2----------------------4--2--------
D |-------------------------------------------4------------------------------------
A |--------------------------------------------------------------------------------
E |--------------------------------------------------------------------------------

A            E                 D           E
 Cheia de mistérios eu não consegui Te desifrar
A                E              D             E
 Eu to levando a serio mais não sei se você esta
Bm                      F#m            E
Se e so brincadeira pode me deixar pra la
Bm                F#m           E
Mais se quiser eu quero eu to maluco pra te amar

D E A                        E
    Se é só pra brincar com meu amor
      D       E
Então vá pode ir
 D   E   A                 E             2x
Mais se quer amor sincero de verdade
      D        E
Então vem pode vir

Db7                              D
Eu te mostro as verdades do meu coração
D   F#m7       Bm
Não tenha medo não
   E
Porque

refrao:  2x
                 Bb    F
Eu vou te amar demais
            Eb     F
Vou te amar demais
Página 1 / 1

Letras e título
Acordes e artista

resetar configurações
OK