Cifra Club

Irracional

Marcos e Belutti

Cifra: Principal
exibições 212.076
Tom: B
[Intro]  G#m  E  B  F#

E|-------------------------------------------------|
B|----7~~---5-4-5-4~--2~--4-5/7~--5-4-5-4~--2~-----|
G|----------------------------------------------4~-|
D|-------------------------------------------------|
A|-------------------------------------------------|
E|-------------------------------------------------|

 G#m                                 E
Basta apenas um olhar, um beijo, um toque
  B                               F#
Pra eu perder meu chão ficar em choque
 G#m                         E
Perder o sentido e a razão, desequilibrar o coração
 B                      F#
Não responder mais por mim

 G#m                             E
Basta um cheiro ou apenas um sorriso
  B                       F#
Pra eu perder meu ar e o juízo
 G#m
Seu domínio em mim é fatal
E
Eu me sinto tão irracional
 B                     F#
Mas não tem jeito é assim
       E                 C#m  F#
Nunca vai mudar, vou me declarar

     B
Com rosas
         F#/A#
Perfume, uma declaração
     G#m
Com beijos
Canções de amor, um violão
  E
Quer saber porque, eu amo você
  F#
Quero sempre te surpreender

      B      G#m        E       B           C
E|----------------------------------------------------------------------------------8-8-8--7-5-7|
B|----7-7-7--5-4-5-4---------7-7-7--5-4-5-------7-7-7-5-4-5-4-----8-8-7-5-7---------------------|
G|--------------------6-4------------------6-4----------------6-4-------------------------------|
D|----------------------------------------------------------------------------------------------|
A|----------------------------------------------------------------------------------------------|
E|----------------------------------------------------------------------------------------------|

 C
Com rosas

E|--8-8-8-7-5-7-5--------------------------------|
B|----------------8--6p5--3----------------------|
G|--------------------------5--------------------|
D|-----------------------------------------------|
A|-----------------------------------------------|
E|-----------------------------------------------|

         G/B
Perfume, uma declaração
     Am
Com beijos

E|--------13----13----------|
B|--9/11-----11-------------|
G|--------------------------|
D|--------------------------|
A|--------------------------|
E|--------------------------|

Canções de amor, um violão

E|-------13----13---11---9---------|
B|-10/11----11----9----7------7--5-|
G|---------------------------------|
D|---------------------------------|
A|---------------------------------|
E|---------------------------------|

  F
Quer saber porque, eu amo você
  G
Quero sempre te surpreender
Acordes para:

    0 comentários

      mostrar mais comentários

      Conseguiu tocar?

      24tocaram0ainda não

      Grave um vídeo tocando Irracional e mande pra gente!

      00:00 / 00:00
      outros vídeos desta música
      repetirqualidadeautomática
      Outro vídeos desta música
        00:00 / 00:00
        automática
        OK