Retoque o Batom

Marcos e Belutti

Tom: F
[Intro] F  Bb9

[Primeira Parte]

   F
Retoque o batom
                        Bb9
Volta pra sala sem ninguém perceber
                              Gm
Disfarça o sorriso que eu deixei em você
     Bb9               F   Bb9         
Não foi por acaso acontecer

[Pré-Refrão]

  F
Guarde o que é bom
                          Bb9
E não se culpe pelo o que aconteceu
                    Gm
Se teve amor então tudo valeu
  Bb9                    F
Ele que me desculpe mas sou eu

        C           Bb9   
Mas sou eu, mas sou eu 

[Refrão]

         F
Quem te faz feliz
    Bb9             Dm7 C
Sua alma diz, como duvidar
        Bb9
Se a razão te carregar pra ele
             C                            F
Mas seu coração sempre te faz voltar pra mim

    Bb9             Dm7 C
Sua alma diz, como duvidar
        Bb9
Se a razão te carregar pra ele
             C                            F
Mas seu coração sempre te faz voltar pra mim

[Solo] Bb9  Dm7  C  Bb9  C 

E|------------------------------------------|
B|------------------------------------------|
G|------------------------------------------|
D|---3-3/5--3-5/7----3-3/5--3-2-------------|
A|-3---------------3------------5-3---------|
E|------------------------------------------|

E|------------------------------------------|
B|------------------------------------------|
G|-10-9-7-9-10-9-7-9-10-9-7-9-10-9-7--------|
D|------------------------------------------|
A|------------------------------------------|
E|------------------------------------------|

E|------------------------------------------|
B|-10---------------------------------------|
G|----12-10-9-10-12-10-9-10-12-10-9---------|
D|------------------------------------------|
A|------------------------------------------|
E|------------------------------------------|

E|------------------------------------------|
B|------------------------------------------|
G|-7----------------------------------------|
D|---8-6-5----------------------------------|
A|---------8-6------------------------------|
E|------------------------------------------|

[Primeira Parte]

   F
Retoque o batom
                        Bb9
Volta pra sala sem ninguém perceber
                              Gm
Disfarça o sorriso que eu deixei em você
     Bb9               F   Bb9         
Não foi por acaso acontecer

[Pré-Refrão]

  F
Guarde o que é bom
                          Bb9
E não se culpe pelo o que aconteceu
                    Gm
Se teve amor então tudo valeu
  Bb9                    F
Ele que me desculpe mas sou eu

        C           Bb9  C
Mas sou eu, mas sou eu 

[Refrão]

         F
Quem te faz feliz
    Bb9             Dm7 C
Sua alma diz, como duvidar
        Bb9
Se a razão te carregar pra ele
             C                            F
Mas seu coração sempre te faz voltar pra mim

    Bb9             Dm7 C
Sua alma diz, como duvidar
        Bb9
Se a razão te carregar pra ele
             C                            F
Mas seu coração sempre te faz voltar pra mim

    Bb9             Dm7 C
Sua alma diz, como duvidar
        Bb9
Se a razão te carregar pra ele
             C                            F  Bb9
Mas seu coração sempre te faz voltar pra mim

   F
Retoque o batom
Página 1 / 1

Letras e título
Acordes e artista

resetar configurações
OK