Romantico Anônimo

Marcos & Belutti

Composição de: Bruno Caliman / Ivo Mozart / Tato / Zeider Pires
tom: Bb (forma dos acordes no tom de G ) Capotraste na 3ª casa
[Intro]  G  D5  Em  E4  C7M

          G
E|---------------------------------------|
B|--3-----3-----1------0-----------------|
G|--0---0-0---0-0---0--0---0-------------|
D|----0-----0-----0------0---------------|
A|---------------------------------------|
E|--3------------------------------------|

          D5
E|---------------------------------------|
B|-0-----0-----0------0------------------|
G|-2---0-2---2-2----2-2---2--------------|
D|-0-0-----0------0-----0----------------|
A|---------------------------------------|
E|---------------------------------------|

          Em          E4    Em
E|---------------------------------------|
B|-0-----0-------------------------------|
G|-0---0-0---0-2--2--0----0--------------|
D|---2----2----2-2---2--2----------------|
A|---------------------------------------|
E|-0-------------------------------------|

          C7M
E|---------------------------------------|
B|-0------0-----0-----0------------------|
G|-0---0--0---0-0---0-0---0--------------|
D|---2------2-----2-----2----------------|
A|-3-------------------------------------|
E|---------------------------------------|

                  G                      D5
Lembra daquele garoto que sentou do seu lado
                Em     E4      Em     C7M
Te ofereceu no recreio um sanduíche amassado
                G                    D5
Lembra daquele rapaz que você nem dava bola
                 Em     E4          Em   C7M
Que escrevia eu te amo nas paredes da escola

[Pré Refrão]

          G
E|-------------------------------------|
B|--3-----3-----1------0---------------|
G|--0---0-0---0-0---0--0---0-----------|
D|----0-----0-----0------0-------------|
A|-------------------------------------|
E|--3----------------------------------|

          D5         D5(9)   D6
E|-------------------------------------|
B|-3-----3-----5------7----------------|
G|-2---0-2---2-2----2-4---4------------|
D|-0-0-----0------0-----0--------------|
A|-------------------------------------|
E|-------------------------------------|

          Em7                 D6
E|-------------------------------------|
B|-8-----8------8------7/--------------|
G|-7---7-7---7--7----7-4/--------------|
D|---9-----9------9----0/--------------|
A|-------------------------------------|
E|-7-----------------------------------|

         C9
E|-------------------------------------|
B|-3------3----3-----------------------|
G|-0---0--0----0-----------------------|
D|---2------2--------------------------|
A|-3-----------------------------------|
E|-------------------------------------|

                    G
Aquele cara que te deu um guarda-chuva
                     D5          D5(9)  D6
Quando a tempestade te pegou na rua
                       Em7
Aquelas flores que deixavam no portão
     D6             C9
Que sempre vinha assinado no cartão

[Refrão]

 G    D5(9)   Em7   C9
Romântico anônimo!
                  G                      D5
Lembra daquele garoto que sentou do seu lado
                Em     E4      Em     C7M
Te ofereceu no recreio um sanduíche amassado
                  G                     D5
Lembra daquele rapaz que você nem dava bola
                   Em   E4          Em   C7M
Que escrevia eu te amo nas paredes da escola

                    G
Aquele cara que te deu um guarda-chuva
                     D5          D5(9)  D6
Quando a tempestade te pegou na rua
                       Em7
Aquelas flores que deixavam no portão
     D6             C9
Que sempre vinha assinado no cartão

 G    D5(9)   Em7  C9
Romântico anônimo! 

Em7
Ouvi você falar de outros amores
Bm
Eu vi o mundo então perder as cores
  C9
Quanto tempo esperei a frase certa
     D/F#
Pra te mostrar que eu era
 G    D5(9)   Em7  C9
Romântico anônimo!
Página 1 / 1

Letras e título
Acordes e artista

resetar configurações
OK