Cifra Club

Aprenda

Tão Feliz

Marcos & Belutti

Cifra: Principal (violão e guitarra)
tom: D
[Intro]
 
            D9             G5(9)
E|---------------|-------------------|
B|------3----3---|------3----3-------|
G|----- 2----2---|------2----2-------|
D|------0--------|------0------------|
A|---------------|-------------------|
E|---------------|------3------------|


[Riff]

E|---------------------------------------------|
B|---------------------------------------------|
G|---2---2----2p0------------------------------|
D|-----------------4--4/5\4----2p0-------0-----|
A|----------------------------------0h2—-------|
E|---------------------------------------------|

E|---------------------------------------------|
B|---------------------------------------------|
G|---2---2----2p0-------------0h2--0h2--0h2----|
D|-----------------4--4/5\4--------------------|
A|---------------------------------------------|
E|---------------------------------------------|

 D9
Você tem vontades sonhos e manias
 G
Tão diferentes das minhas
Bm         A            G
E o normal é mesmo duvidar

 D9
Você curte a luz do sol e eu da lua
G
E quanto "tá" dormindo eu tô na rua
Bm         A               G
E quem vê diz que não vai durar

Em7              G
O estranho é que eu "tô"
 Bm         A
Tão feliz, tão feliz

 D9                 D/F#
Mesmo sendo o seu oposto
 G
Não faz mal eu "tô" disposto
Bm
A amar e se você topar
G
Os nossos defeitos
              D9
Vão se completar

 D9                 D/F#
Mesmo sendo o seu oposto
 G
Não faz mal eu "tô" disposto
Bm
A amar e se você topar
G
Os nossos defeitos
              D9
Vão se completar
Composição de Lucas Santos / Rafael Torres / SAMUEL DEOLLI
Colaboração e revisão:
191.464 exibições
    • ½ Tom
    • A
    • Bb
    • B
    • C
    • Db
    • D
    • Eb
    • E
    • F
    • F#
    • G
    • Ab
  • Adicionar à lista

    0 comentários

    Ver todos os comentários
    00:00 / 00:00
    Outros vídeos desta música
    Repetir Qualidade Automático
    Outros vídeos desta música
    00:00 / 00:00
    Automático

    Cifra Club Pro

    Aproveite o Cifra Club com benefícios exclusivos e sem anúncios
    Cifra Club Pro
    Aproveite o Cifra Club com benefícios exclusivos e sem anúncios
    OK