Its Saturday

Marcy Playground

Composição de: John Wozniak
tom: A
Tabber: Jeremy Beavin (*)

alright everyone, this is a sweet song, and its pretty easy to play

Intro
E|----------------------------------------------------------
B|-------------------------------------------------------  
G|----------------------------------------------------------
D|--7---7-4-444-2----7--7-4-444---2-(let ring)--------------
A|--7---7-4-444-2----7--7-4-444-2---------------------------
E|--5---5-2-222-0----5--5-2-222-0---------------------------

Verse Part 1  (3x)         No distortion

E|--------------------------------------------------------
B|--------------------------------------------------------
G|---------------666-4444---------------------------------
D|-666-444-------666-4444---------------------------------
A|-666-444-------444-2222---------------------------------
E|-444-222--0---------------------------------------------

Verse break (1x)       Distortion
E|----------------------------------------------------------
B|----------------------------------------------------------
G|----------------------------------------------------------
D|-7-7-4-4-4-2-2-2-2----------------------------------------
A|-7-7-4-4-4-2-2-2-2----------------------------------------
E|-5-5-2-2-2-0-0-0-0----------------------------------------

Verse part 2 (p.m.)

E|-------------------------------------------------------
B|-------------------------------------------------------
G|-------------------------------------------------------
D|-777-444-22222-777---444-22222----(2x)-----------------
A|-777-444-22222-777---444-22222-------------------------
E|-555-222-00000-555---222-00000-------------------------

Chorus same as intro

Bridge (2x)

E|----------------------------------------------------------
B|----------------------------------------------------------
G|----------------------------------------------------------
D|---777-4444-2---777-4444-2-777-4444-2-7---------------
A|---777-4444-2---777-4444-2-777-4444-2-7---------------
E|---555-2222-0---555-2222-0-555-2222-0-5---------------
Página 1 / 1

Letras e título
Acordes e artista

resetar configurações
OK