Cifra Club

Coisas Esotéricas

Maria Cecília e Rodolfo

Cifra: Principal (violão e guitarra)
tom: F#
[Intro] F#  C#  D#m  B
        F#  C#  D#m  B

Tab - Solo Intro

E|-9-7--6h7p6---6-7-6-----------------6-----|
B|------------9-------9-7-7-----6-7-9-------|
G|--------------------------6h8-------------|
D|------------------------------------------|
A|------------------------------------------|
E|------------------------------------------|

E|-9-7--6h7p6---6-7-6-----9/11-9-7-6--------|
B|------------9-------9-7-------------------|
G|------------------------------------------|
D|------------------------------------------|
A|------------------------------------------|
E|------------------------------------------|

F#           C#                      D#m
  Coisas esotéricas que passam na cabeça
            A#m                     B
Vou logo dizendo antes que eu esqueça
              C#
Coisas bem malucas como
     F#                   C#
Te amar, te amar, te amar, amar, amar

F#            C#                 D#m
  Sentimento louco, amor bem profundo
              A#m                  B
Acho que vou desligar-me desse mundo
                 C#                F#  C#
Antes que enlouqueça esse meu coração

[TAB - Solo Pré-Refrão]

E|------------------------------------------|
B|---------7p6---9-7-6-------6-7-9-7--------|
G|-----6-8-----8-------8-6-8----------------|
D|-6h8--------------------------------------|
A|------------------------------------------|
E|------------------------------------------|

[Refrão] 

F#            C#              
   A minha cabeça está virada
D#m               B             
    Fico louco pela madrugada
F#                  C#                   
   A procura de alguém um ombro pra chorar
D#m                 B                 
    Só por seu amor, seu amor, seu amor
F#             C#                    D#m
   Sentimento louco, amor bem profundo
              B                    F#
Acho que vou desligar-me desse mundo
                 C#                D#m  B
Antes que enlouqueça esse meu coração
00:00 / 00:00
Outros vídeos desta música
Repetir
Outros vídeos desta música
Composição de CARLOS EDUARDO DIAS
1.041.350 exibições
  • Simplificar cifra
    • ½ Tom
    • A
    • Bb
    • B
    • C
    • Db
    • D
    • Eb
    • E
    • F
    • F#
    • G
    • Ab
  • Adicionar à lista

    0 comentários

    Ver todos os comentários

    Entre para oCifra Club PRO

    Tenha acesso a benefícios exclusivos no App e no Site

    • Chega de anúncios

    • Prioridade de compra em lançamentos

    • Mais recursos no app do Afinador

    • Atendimento Prioritário

    • Descontos nos produtos Cifra Club

    • Ajude a produzir mais conteúdo

    00:00 / 00:00

    Cifra Club Pro

    Aproveite o Cifra Club com benefícios exclusivos e sem anúncios
    Cifra Club Pro
    Aproveite o Cifra Club com benefícios exclusivos e sem anúncios
    OK