Cifra Club

Coisas Esotéricas

Maria Cecília e Rodolfo

Cifra: Principal (violão e guitarra)
exibições 991.981
Tom: F#
(intro 2x) F# C# Ebm B

E|-9-7--6h7p6----6--7--6------------------6--9--7--6h7p6--6--7--6------9/11-9-7-6-|
B|------------9----------9--7--7-----6-7-9--------------9---------9--7------------|
G|--------------------------------6h8---------------------------------------------|
D|--------------------------------------------------------------------------------|
A|--------------------------------------------------------------------------------|
E|--------------------------------------------------------------------------------|

F#         C#                      Ebm
Coisas esotéricas que passam na cabeça.
            Bbm                      B
Vou logo dizendo antes que eu esqueça
              C#
Coisas bem malucas como
     F#                 C#
Te amar, te amar, te amar, amar, amar

F#          C#                 Ebm
Sentimento louco, amor bem profundo,
              Bbm                  B
Acho que vou desligar-me desse mundo,
                C#                  F#       C#
Antes que enlouqueça esse meu coração

(solo pré-refrão)
E|-------------------------------|
B|-------7p6--9-7-6------6-7-9-7-|
G|----6-8---8-------8-6-8--------|
D|-6h8---------------------------|
A|-------------------------------|
E|-------------------------------|

(refrão)
F#         C#              Ebm
A minha cabeça está virada,
              B             F#
Fico louco pela madrugada,
                C#                   Ebm
A procura de alguem um ombro pra chorar,
                  B                 F#
So por seu amor, seu amor, seu amor.
            C#                     Ebm
Sentimento louco, amor bem profundo,
             B                     F#
Acho que vou desligar-me desse mundo,
               C#                 Ebm        B
Antes que enlouqueça esse meu coração.

(repete tudo)
Acordes para:

    0 comentários

    mostrar mais comentários

    Conseguiu tocar?

    45 tocaram 0 ainda não

    Grave um vídeo tocando Coisas Esotéricas e mande pra gente!

    00:00 / 00:00
    outros vídeos desta música
    repetir qualidade Automático
    Outro vídeos desta música
    00:00 / 00:00
    Automático
    Capítulos
    • Início
    • Acordes da introdução
    • Tocando introdução
    • Ensinando rítmo da introdução
    • Acordes da primeira parte
    • Tocando primeira parte
    • Acordes do refrão
    • Tocando refrão
    • Tocando solo inicial
    • Ensinando solo inicial devagar
    • Ensinando solo pré-refrão devagar
    • Encerramento
    OK