Cifra Club

Você de Volta

Maria Cecília e Rodolfo

Cifra: Principal
exibições 1.361.357
Tom: G
Intro 2x: G D/F# C Cm7

E|------------------------------------------------------------------------------|
B|------------------------------------------------------------------------------|
G|--------7-------7----7------7-----7---7-----7-----7---7-----7-----7----7------|
D|------------------------------------------------------------------------------|
A|--10-10---10-10---10----9-9---9-9---9---7-7---7-7---7---6-6---6-6----6--------|
E|------------------------------------------------------------------------------|


Solo:
E|----------------------------------------------------------------------|
B|------------------------------------7/8-7-7-5-5-----------------------|
G|-------7-7---7h9-7------7-7---7h9-7-------------7-7-4-4h5-5-5-4-4/2-0-|
D|---7h9-----9--------7-------9-----------------------------------------|
A|----------------------------------------------------------------------|
E|----------------------------------------------------------------------|

E|----------------------------------------------------------------------------|
B|------------------------------------8/7-7-5-5-------------8-10b12b10-8-10-8-|
G|---------7-7-9-7---------7-7--7/9-7-----------7-7-----7-9-------------------|
D|---5/7-------------5-7---------------------------7-9------------------------|
A|----------------------------------------------------------------------------|
E|----------------------------------------------------------------------------|

G
Eu vivo buscando em alguém

Alguma coisa que eu sei
         Em7           D/F#
Que só existe em você
G
Eu quero a metade de mim que é você

O riso que irradia o mundo
          Em7      D/F#
E que me faz viver
C                            Em7
Eu não agüento mais essa saudade
  C                      Em7         D/F#
E essa solidão que me invade me faz ver

Refrão:
 G                 D/F#
Tudo que eu quero é você de volta
C                     Cm7
Tô te esperando vem bater na minha porta
G                D/F#
Eu amo você, eu só sei te querer
C                       Cm7        G D/F# C Cm7
Minha vida tem sentido se tiver você

G
Eu vivo buscando em alguém

Alguma coisa que eu sei
         Em7           D/F#
Que só existe em você
G
Eu quero a metade de mim que é você

O riso que irradia o mundo
          Em7      D/F#
E que me faz viver
C                            Em7
Eu não agüento mais essa saudade
  C                      Em7         D/F#
E essa solidão que me invade me faz ver

Refrão 3x:
 G                 D/F#
Tudo que eu quero é você de volta
C                     Cm7
Tô te esperando vem bater na minha porta
G                D/F#
Eu amo você, eu só sei te querer
C                       Cm7        G D/F# C Cm7
Minha vida tem sentido se tiver você

Solo do meio:
E|----------------------------------------------------------------------|
B|------------------------8-8-------8-10-10b12b10-8---------------------|
G|------7-7---7/9-7--7-9--9-7---7h9----------------9-7------------------|
D|--7/9-----9-----------------------------------------9-7----7/9-7------|
A|-------------------------------------------------------10--------7-10-|
E|----------------------------------------------------------------------|

E|---------------------------------------------------------------------|
B|------------------8-8------------------------------8-10b12b10-8-10-8-|
G|--------------7-7-9-7--7-7h9-7-5---5---5-------7-9-------------------|
D|------5-5-7/9--------------------7---7---9-7h9-----------------------|
A|--5h7----------------------------------------------------------------|
E|---------------------------------------------------------------------|

0 comentários

    mostrar mais comentários
    00:00 / 00:00
    outros vídeos desta música
    repetirqualidadeautomática
    Outro vídeos desta música
      00:00 / 00:00
      automática
      Capítulos
      • Início
      • Acordes da introdução
      • Tocando introdução
      • Ritmo introdução
      • Acordes da primeira parte
      • Tocando primeira parte
      • Acordes do refrão
      • Tocando refrão
      • Tocando solo da introdução (1ª parte)
      • Explicando solo da introdução (1ª Parte)
      • Tocando solo da introdução (2ª Parte)
      • Explicando solo da introdução (2ª Parte)
      OK