Cifra Club

A História de Lily Braun

Maria Gadú

Tab de baixo: Principal
Intro:
G|-----------------------|
D|-10-------13-12-------9| (2X) 
A|----10-11-------11-10--|
E|-----------------------|

G|-----------------------|
D|-10-------13-12-------9| (8X) 
A|----10-11-------11-10--|
E|-----------------------|

G|-----------------------|                G|-----------------x----------------|
D|-----------------------|                D|-----------------x----------------|
A|----------3-3-3-3------|                A|-----------------x-/5-5-----------|
E|--3-3-3-3---------1....|                E|-0-0-0-0-5-5-5-5-x------1-3-3-3/2-|

Final:
G|---------------------1-0-----0-----------|   
D|--------0-1-----0-1-------1---4..........|
A|---1-2-3-----2-3---------3---------------|
E|-3---------------------------------------|
Composição de Chico Buarque / Têtes Raides
Colaboração e revisão:
  • Rafael Oliveira
2.062 exibições

0 comentários

Ver todos os comentários

Conseguiu tocar?

1 Tocaram 0 Ainda não

Grave um vídeo tocando A História de Lily Braun e nos envie!

00:00 / 00:00
Outros vídeos desta música
Repetir Qualidade Automático
Outros vídeos desta música
00:00 / 00:00
Automático

Cifra Club Pro

Aproveite o Cifra Club com benefícios exclusivos e sem anúncios
Cifra Club Pro
Aproveite o Cifra Club com benefícios exclusivos e sem anúncios
OK