Cifra Club

Quando Fui Chuva

Maria Gadú

Cifra: Principal (violão e guitarra)
exibições 306.488
Tom: G
[Intro]

    D9                  Am6/C
E|--------------------------------------------|
B|---------5---------------------7------------|
G|--7--------------7/9-----9-------------9/7--|
D|------7-----7---------------7-----7---------|
A|--5-----------------------------------------|
E|----------------------8---------------------|

   Bm7/11              Gm6/Bb
E|--------------------------------------------|
B|----------5-------------------5-------------|
G|-------7-----7-------------7-----7----------|
D|----7-------------------5-------------------|
A|--------------------------------------------|
E|--7-------------7----6--------------6-------|

    D9                  Am6/C
E|--------------------------------------------|
B|----------5---------------------7-----------|
G|----7------------7/9-----9-------------9/7--|
D|-------7-----7---------------7-----7--------|
A|--5-----------------------------------------|
E|----------------------8---------------------|

   Bm7/11              Gm6/Bb
E|--------------------------------------------|
B|----------5----------------5----------------|
G|-------7-----7-----------7------------------|
D|----7------------------5--------------------|
A|--------------------------------------------|
E|--7-------------7----6----------------------|

[Primeira Parte]

D9                      A4(6)
 Quando já não tinha espaço, pequena fui
Gm6/Bb              Bm7/11
  Onde a vida me cabia apertada
Am6/C               Bm6
  Em um canto qualquer
  E7/9-  Bm7/11                  Gm6/Bb
Acomodei   minha dança, os meu traços de chuva

[Pré-Refrão]

A4(6)                 E7/G#
  E o que é estar em paz
  G9               F#7/#5
Pra ser minha e assim ser tua
Bm                   Bm/A
 Quando já não procurava mais
E7/G#                   G9       F#7/#5    Bm
  Pude enfim nos olhos teus, vestidos d'água
                Bm/A
Me atirar tranquila daqui
E7/G#                   Bb7(9)           A4(7/9)
  Lavar os degraus, os sonhos e as calçadas

[Refrão]

D9        Am6/C              Bm7/11
 E, assim,  no teu corpo eu fui chuva
    Gm6/Bb
Jeito bom de se encontrar!
D9        Am6/C              Bm7/11
 E, assim,  no teu gosto eu fui chuva
    Gm6/Bb          D9
Jeito bom de se deixar viver!

( Am6/C  Bm7/11  Gm6/Bb )

[Primeira Parte]

D9                      A4(6)
 Quando já não tinha espaço, pequena fui
Gm6/Bb              Bm7/11
  Onde a vida me cabia apertada
Am6/C               Bm6
  Em um canto qualquer
  E7/9-  Bm7/11                  Gm6/Bb
Acomodei   minha dança, os meu traços de chuva

[Pré-Refrão]

A4(6)                 E7/G#
  E o que é estar em paz
  G9               F#7/#5
Pra ser minha e assim ser tua
Bm                   Bm/A
 Quando já não procurava mais
E7/G#                   G9       F#7/#5    Bm
  Pude enfim nos olhos teus, vestidos d'água
                Bm/A
Me atirar tranquila daqui
E7/G#                   Bb7(9)           A4(7/9)
  Lavar os degraus, os sonhos e as calçadas

[Refrão]

D9        Am6/C              Bm7/11
 E, assim,  no teu corpo eu fui chuva
    Gm6/Bb
Jeito bom de se encontrar!
D9        Am6/C              Bm7/11
 E, assim,  no teu gosto eu fui chuva
    Gm6/Bb
Jeito bom de se deixar viver!

D9        Am6/C              Bm7/11
 E, assim,  no teu corpo eu fui chuva
    Gm6/Bb
Jeito bom de se encontrar!
D9        Am6/C              Bm7/11
 E, assim,  no teu gosto eu fui chuva
    Gm6/Bb          D9
Jeito bom de se deixar viver!

( Am6/C  Bm7/11  Gm6/Bb )
( D9  Am6/C  Bm7/11  Gm6/Bb )

[Segunda Parte]

 Bm                 Bm/A
Nada do que fui me veste agora
     E7/G#            G9
Sou toda gota, que escorre livre pelo rosto
         F#7/#5                     Bm
E só sossega quando encontra sua boca
                 Bm/A
E, mesmo que em ti me perca
       E7/G#                        G9
Nunca mais serei aquela que se fez seca
      F#7/#5                  Bm
Vendo a vida passar pela janela

[Pré -Refrão]

                    Bm/A
Quando já não procurava mais
E7/G#                    G9      F#7/#5    Bm
  Pude enfim nos olhos teus, vestidos d'água
                Bm/A
Me atirar tranquila daqui
E7/G#                   Bb7(9)           A4(7/9)
  Lavar os degraus, os sonhos e as calçadas

[Refrão]

D9        Am6/C              Bm7/11
 E, assim,  no teu corpo eu fui chuva
    Gm6/Bb
Jeito bom de se encontrar!
D9        Am6/C              Bm7/11
 E, assim,  no teu gosto eu fui chuva
    Gm6/Bb
Jeito bom de se deixar viver!

D9        Am6/C              Bm7/11
 E, assim,  no teu corpo eu fui chuva
    Gm6/Bb
Jeito bom de se encontrar!
D9        Am6/C              Bm7/11
 E, assim,  no teu gosto eu fui chuva
    Gm6/Bb          D9
Jeito bom de se deixar viver!

[Final]

( Am6/C  Bm7/11  Gm6/Bb )

          D9
De se deixar viver

( Am6/C  Bm7/11  Gm6/Bb )

          D9
De se deixar viver

( Am6/C  Bm7/11  Gm6/Bb )

          D9
De se deixar viver

( Am6/C  Bm7/11  Gm6/Bb )

                D9
De se deixar viver

0 comentários

    mostrar mais comentários

    Conseguiu tocar?

    14tocaram2ainda não

    Grave um vídeo tocando Quando Fui Chuva e mande pra gente!

    00:00 / 00:00
    outros vídeos desta música
    repetirqualidadeAutomático
    Outro vídeos desta música
      00:00 / 00:00
      OK