Cifra Club

Aprenda

Quase Sem Querer

Maria Gadú

Tab de baixo: Principal
Intro:
G|-----------------------------------------------------|
D|-7----9----------------------------------------------|
A|-----------5----7------------------------------------| 4x
E|-----------------------------------------------------|

Tenho andado distraído...      
G|----9-----11------------------------------------------|
D|-7----9------7----9-----------------------------------|
A|----------5----7--------------------------------------| 4x
E|------------------------------------------------------|

Quantas chances...
G|-----------------------------------------------------|
D|-----7----9------7--------10--9----------------------|
A|--5----7-----5-7-----10---------7--------------------|
E|-----------------------------------------------------|

Me fiz em mil pedaços...     
G|-----9------11---------------------------------------|
D|--7---7--9----9---------7------9---------------------|
A|---------------------5---5--7---7--------------------| 4x
E|-----------------------------------------------------|

Mas  não sou mais....
G|-----------------------------------------------------|
D|-----7----9------7--------10--9----------------------|
A|--5----7-----5-7-----10---------7--------------------|
E|-----------------------------------------------------|

Já não me preocupo...                
G|-----5--5------7--7------|      G|-----7-7----------------|
D|---5--55-5---7--77-7-----| 3x   D|---5--------------------|
A|-------------------------|      A|------------------------|
E|-------------------------|      E|------------------------|

Tão correto e tão bonito...      
G|-----9------11--------------------|     G|------------------------------------|
D|--7---7--9----9---------7------9--| 3x  D|----7----9------7--------10--9------|
A|---------------------5---5--7---7-|     A|--5----7-----5-7-----10---------7-7-|
E|----------------------------------|     E|------------------------------------|

Já não me preocupo...                    
G|-----5--5------7--7----|      G|-----------7------------------|
D|---5--55-5---7--77-7---| 3x   D|---5---7----------------------|
A|-----------------------|      A|------------------------------|
E|-----------------------|      E|------------------------------|

Intro final              
G|-----------------------------------------------------|
D|-7----9----------------------------------------------|
A|-----------5----7------------------------------------| 4x
E|-----------------------------------------------------|
Composição de Dado Villa-Lobos / Renato Rocha / Renato Russo
Colaboração e revisão:
  • Matt Jeevas
541 exibições

0 comentários

Ver todos os comentários

Conseguiu tocar?

0 Tocaram 0 Ainda não

Grave um vídeo tocando Quase Sem Querer e nos envie!

00:00 / 00:00
Outros vídeos desta música
Repetir Qualidade Automático
Outros vídeos desta música
00:00 / 00:00
Automático

Cifra Club Pro

Aproveite o Cifra Club com benefícios exclusivos e sem anúncios
Cifra Club Pro
Aproveite o Cifra Club com benefícios exclusivos e sem anúncios
OK