Cifra Club

Aprenda

Pagu

Maria Rita

Tab de baixo: Principal
(introdução)

     a        d            a
e|---5---------------------5---
a|------------5--5~7-5~77------
D|------7-5--------------------  4x
g|-----------------------------

     a        d            a   
e|---5--------------------------------5-5---------------------------------------------------5--
a|-------------------5---5~7--5~77---------------------------5------5~7-----5~77---------------
d|--------7----5----------------------------7----5---------------------------------------------
g|---------------------------------------------------------------------------------------------
     mexo remmexo na inquisição      so quem já morreu na fogueira sabe o que é ser carvão

e|---5------------------------------|-------------------------------------------------------------
a|-------------------55--1-2--------|-2------------2----------2-----4~5---------5---------5-------
d|--------7----5--------------------|-------------------------------------------------------------
g|---------------------------4-2-4--|----4-2-4--------4-2-4------4-------7-5-7-----7-5-7-----7-5-7
                      minha força   não é bruta                      não sou freira nem sou puta

e|----------3-------------5-------------------------------------------0-2-3-4------------------
a|-----------------------------------------2-------------5--------------------0-2-3-4-5--------
d|---------------------------------------------------------------------------------------------
g|---------------------------------------------------------------------------------------------
    porque nem toda feiticeira é corcunda nem toda brasileira é bunda meu peito não é de silicone

e|-----------------------------------
a|---5---------3---------------2-----
d|-----------------------------------
g|-----------------------------------
      sou mais macho que muito homem

e|------------------------------------------------------------
a|------------------------------------------------------------
d|----2-----3----3-------2----2---3----5------3-----5-----7---
g|------------------------------------------------------------
      ra ta ta   ra  ta  ta   ra  ta  ta  pa ra pa  pa ra pa
Composição de Rita Lee / Zélia Duncan
Colaboração e revisão:
  • César Gonzalez
1.386 exibições

0 comentários

Ver todos os comentários

Conseguiu tocar?

0 Tocaram 0 Ainda não

Grave um vídeo tocando Pagu e nos envie!

00:00 / 00:00
Outros vídeos desta música
Repetir Qualidade Automático
Outros vídeos desta música
00:00 / 00:00
Automático

Cifra Club Pro

Aproveite o Cifra Club com benefícios exclusivos e sem anúncios
Cifra Club Pro
Aproveite o Cifra Club com benefícios exclusivos e sem anúncios
OK