Cifra Club

Aprenda

Que Seja Pra Ficar

Mariana Nolasco

Cifra: Principal (violão e guitarra)
tom: A
[Intro] 

E|------------------------------------------|
B|------------------------------------------|
G|-----6------6--------6-----6--------------|
D|---7------7----7---7-----7-----7----------|
A|-5------4----4---5-----4------------------|
E|-----------------------------7------------|

E|------------------------------------------|
B|------------------------------------------|
G|-----6------6--------6--------------------|
D|---7------7----7---7----------------------|
A|-5------4----4---5-----4---0--------------|
E|-------------------------7----------------|

[Primeira Parte]

E|------------------------------------------|
B|------------------------------------------|
G|-----6------6--------6-----6--------------|
D|---7------7----7---7-----7-----7----------|
A|-5------4----4---5-----4------------------|
E|-----------------------------7------------|

E|------------------------------------------|
B|------------------------------------------|
G|-----6------6--------6--------------------|
D|---7------7----7---7----------------------|
A|-5------4----4---5-----4---0--------------|
E|-------------------------7----------------|

E|------------------------------------------|
B|------------------------------------------|
G|-----6------6--------6-----6--------------|
D|---7------7----7---7-----7-----7----------|
A|-5------4----4---5-----4------------------|
E|-----------------------------7------------|

D9
Esse teu coração
Que entrou bem devagar  
E
Ninguém nem percebeu
                A
Até ele se acomodar

D9
E ele chegou sem nem me avisar
                         E
E, de repente, quando eu vi
             A
Ele já tava lá

D9             E
Esse teu fico manso que me fez deixar
A
A paz que Deus me trouxe 
                   D9  E
É a paz que tu me dá

E|------------------------------------------|
B|------------------------------------------|
G|-----6------6--------6-----6--------------|
D|---7------7----7---7-----7-----7----------|
A|-5------4----4---5-----4------------------|
E|-----------------------------7------------|

E|------------------------------------------|
B|------------------------------------------|
G|-----6------6--------6--------------------|
D|---7------7----7---7----------------------|
A|-5------4----4---5-----4---0--------------|
E|-------------------------7----------------|

[Segunda Parte]

E|------------------------------------------|
B|------------------------------------------|
G|-----6------6--------6-----6--------------|
D|---7------7----7---7-----7-----7----------|
A|-5------4----4---5-----4------------------|
E|-----------------------------7------------|

E|------------------------------------------|
B|------------------------------------------|
G|-----6------6--------6--------------------|
D|---7------7----7---7----------------------|
A|-5------4----4---5-----4---0--------------|
E|-------------------------7----------------|

E|------------------------------------------|
B|------------------------------------------|
G|-----6------6--------6-----6--------------|
D|---7------7----7---7-----7-----7----------|
A|-5------4----4---5-----4------------------|
E|-----------------------------7------------|

D9                  E
Parece até mandinga ou canto de ourixá
A                   D9                       E
Que nem um navegante, nem ninguém já ouviu falar

D9            E
E era de xangô ou era de Iemanjá
A                        D9             E
E, de repente, quando eu vi ele já tava lá

D9             E
Esse teu fico manso que me fez deixar
A
A paz que Deus me trouxe 
                   D9  E
É a paz que tu me dá

A            D9       E
  Se for entrar, que seja pra ficar
A            D9
  E deixe estar
       E
O que for pra ser, será

D9             E
Esse teu fico manso que me fez deixar
A
A paz que Deus me trouxe 
                   D9  E
É a paz que tu me dá

E|------------------------------------------|
B|------------------------------------------|
G|-----6------6--------6-----6--------------|
D|---7------7----7---7-----7-----7----------|
A|-5------4----4---5-----4------------------|
E|-----------------------------7------------|

E|------------------------------------------|
B|------------------------------------------|
G|-----6------6--------6--------------------|
D|---7------7----7---7----------------------|
A|-5------4----4---5-----4---0--------------|
E|-------------------------7----------------|

[Terceira Parte]

E|------------------------------------------|
B|------------------------------------------|
G|-----6------6--------6-----6--------------|
D|---7------7----7---7-----7-----7----------|
A|-5------4----4---5-----4------------------|
E|-----------------------------7------------|

E|------------------------------------------|
B|------------------------------------------|
G|-----6------6--------6--------------------|
D|---7------7----7---7----------------------|
A|-5------4----4---5-----4---0--------------|
E|-------------------------7----------------|

E|------------------------------------------|
B|------------------------------------------|
G|-----6------6--------6-----6--------------|
D|---7------7----7---7-----7-----7----------|
A|-5------4----4---5-----4------------------|
E|-----------------------------7------------|
D9
Esse teu coração
Que entrou bem devagar
 E
Ninguém nem percebeu
                 A
Até ele se acomodar

D9
E ele chegou sem nem me avisar
                          E
E, de repente, quando eu vi
             A
Ele já tava lá

D9             E
Esse teu fico manso que me fez deixar
A
A paz que Deus me trouxe 
                   D9  E
É a paz que tu me dá

A            D9       E
  Se for entrar, que seja pra ficar
A            D9
  E deixe estar
       E
O que for pra ser, será

A            D9       E
  Se for entrar, que seja pra ficar
A            D9
  E deixe estar
       E
O que for pra ser, será

[Final]

E|------------------------------------------|
B|------------------------------------------|
G|-----6------6--------6-----6--------------|
D|---7------7----7---7-----7-----7----------|
A|-5------4----4---5-----4------------------|
E|-----------------------------7------------|

E|------------------------------------------|
B|------------------------------------------|
G|-----6------6--------6--------------------|
D|---7------7----7---7----------------------|
A|-5------4----4---5-----4---0--------------|
E|-------------------------7----------------|

( A )
Composição de Mariana Nolasco / Pedro Pascual
Colaboração e revisão:
  • Marcos Paulo
  • Isadora Flores
  • Mariana Nolasco
23.769 exibições
    • ½ Tom
    • A
    • Bb
    • B
    • C
    • Db
    • D
    • Eb
    • E
    • F
    • F#
    • G
    • Ab
  • Adicionar à lista

    0 comentários

    Ver todos os comentários

    Conseguiu tocar?

    9 Tocaram 5 Ainda não

    Grave um vídeo tocando Que Seja Pra Ficar e nos envie!

    00:00 / 00:00
    Outros vídeos desta música
    Repetir Qualidade Automático
    Outros vídeos desta música
    00:00 / 00:00
    Automático

    Cifra Club Pro

    Aproveite o Cifra Club com benefícios exclusivos e sem anúncios
    Cifra Club Pro
    Aproveite o Cifra Club com benefícios exclusivos e sem anúncios
    OK