Enviar cifraEntrar

Amante Não Tem Lar

Marília Mendonça

Cifra: Principal
exibições 292.527
Tom: C
Intro: Am F C G


E|------------------------------------------------|
D|------------------------------------------------|
G|---5-5-5-5-7-9----7-9-7-9-7-9-7-9-7-9/10-9-7----|
B|----------------------------------------------9-|  
A|------------------------------------------------|
E|------------------------------------------------|


Primeira parte:
                Am
Só vim me desculpar
                F
Eu não vou demorar
                      C
Não vou tentar ser sua amiga
                G
Pois sei que não dá
              Am
Você vai me odiar
                 F
Mas eu vim te contar

Que faz um tempo
        C                  G
Eu me meti no meio do seu lar

Pré-refrão:
                     Dm
Sua família é tão bonita
                      F
Eu nunca tive isso na vida
             C
E se eu continuar assim
               G
Eu sei que não vou ter

                  Dm
Ele te ama de verdade
       F
E a culpa foi minha
          C                     G
Minha responsabilidade eu vou resolver
Dm                   F
Não quero atrapalhar você

Refrão:
                 C
E o preço que eu pago
                      G
É nunca ser amada de verdade
        
Ninguém me respeita nessa cidade
Dm
Amante não tem lar
F
Amante nunca vai casar
                  C
E o preço que eu pago
                      G
É nunca ser amada de verdade

Ninguém me respeita nessa cidade
Dm
Amante não vai ser fiel
F                          C
Amante não usa aliança e véu

Solo Refrão:

E|------------------------------------------------|
D|------------------------------------------------|
G|---5-5-5-5-7-9----7-9-7-9-7-9-7-9-7-9/10-9-7----|
B|------------------------------------------------|  
A|------------------------------------------------|
E|------------------------------------------------|


E|------------------------------------------------------------------|
D|------------------------------------------------------------------|
G|---7-9-7-9-7-9-7-9-7-9/10-9-7---9/10-9----5-5-----9/10--9-----5-5-|
B|---------------------------------------7-------7-----------7------|  
A|------------------------------------------------------------------|
E|------------------------------------------------------------------|


Pré-refrão:
                     Dm
Sua família é tão bonita
                      F
Eu nunca tive isso na vida
             C
E se eu continuar assim
               G
Eu sei que não vou ter

                  Dm
Ele te ama de verdade
       F
E a culpa foi minha
          C                     G
Minha responsabilidade eu vou resolver
Dm                   F
Não quero atrapalhar você

Refrão 2x:
                 C
E o preço que eu pago
                      G
É nunca ser amada de verdade
        
Ninguém me respeita nessa cidade
Dm
Amante não tem lar
F
Amante nunca vai casar
                  C
E o preço que eu pago
                      G
É nunca ser amada de verdade

Ninguém me respeita nessa cidade
Dm
Amante não vai ser fiel
F                         C
Amante não usa aliança e véu
  • 1
  • 2
  • 3
  • 4
  • 5
  • 6
  • 7
  • 8
  • 9
  • 10
  • 11
  • 12
    Acordes para:
      Colaboração e revisão:

      0 comentários

        mostrar mais comentários

        Conseguiu tocar?

        20tocaram1ainda não

        Grave um vídeo tocando Amante Não Tem Lar e mande pra gente!

        00:00 / 00:00
        outros vídeos desta música
        repetirqualidadeautomática
        • automática
        Outro vídeos desta música
          00:00 / 00:00
          automática
          • automática
          Acordes para:violão e guitarra
          dificuldadeexibiçõescontribuições
          fecharplay/pause subir/descer velocidade
            Acordes para:violão e guitarra
            acordes
            fechar
            OK