Ciumeira

Marília Mendonça

Composição: DIEGO FERRARI / Everton Matos / GUILHERME FERRAZ / PAULO PIRES / Ray Antonio / Sando Neto
Tom: A
[Intro]

(Bm  F#m11  E9) 2x

[Solo intro – Guitarra]

Parte 1 de 2
E|-----------------------------------------------------|
B|-0h2-3-3-3-3-3-3-3-3\2------------5------------------|
G|-----------------------2--2-4/6-4--------------------|
D|-----------------------------------------------------|
A|-----------------------------------------------------|
E|-----------------------------------------------------|

Parte 2 de 2
E|-----------------------------------------------------|
B|-0h2-3-3-3-3-3-3-3-3\2-------------------------------|
G|-----------------------2--2-4/6-4--------------------|
D|----------------------------------4/6----------------|
A|-----------------------------------------------------|
E|-----------------------------------------------------|

[Solo intro – Violão]

 Parte 1 de 2
E|-----8/9--9--7-5-5-5--4-4-4--------------------------|
B|---9-9/10-10-9-7-7-7--5-5-5--7h5--5h7----------------|
G|-9---------------------------7\6--6/7----------------|
D|-----------------------------------------------------|
A|-----------------------------------------------------|
E|-----------------------------------------------------|

Parte 2 de 2
E|-----8/9--9--7-5/4-4---------------------------------|
B|---9-9/10-10-9-7/5-5---------------------------------|
G|-9---------------------------------------------------|
D|-----------------------------------------------------|
A|-----------------------------------------------------|
E|-----------------------------------------------------|

[Primeira parte]

 Bm                 F#m11
No começo, eu entendia
            E9
Mas era só cama, não tinha amor
 Bm                   F#m11
Lembro quando você dizia
          E9
Vou desligar porque ela chegou

[Pré-refrão]

Bm                     F#m11
E a gente foi se envolvendo
            E9
Perdendo o medo
 Bm                    F#m11
Não tinha lugar e nem hora
            E9 
Pra dar um beijo
                         D
Coração não tá mais aceitando
    Dm               A9  E
Só metade do seu: Te amo

[Refrão]

          A9
É uma ciumeira atrás da outra
                     E 
Ter que dividir seu corpo e a sua boca
                   Bm
Tá bom que eu aceitei por um instante
                  D
A verdade é que amante 
                  E
Não quer ser amante

          A9
É uma ciumeira atrás da outra
                     E 
Ter que dividir seu corpo e a sua boca
                   Bm
Tá bom que eu aceitei por um instante
                  D
A verdade é que amante 
                  E
Não quer ser amante
          A9
É uma ciumeira atrás da outra

[Intro]

(Bm  F#m11  E9) 2x

[Solo intro – Guitarra]

Parte 1 de 2
E|-----------------------------------------------------|
B|-0h2-3-3-3-3-3-3-3-3\2------------5------------------|
G|-----------------------2--2-4/6-4--------------------|
D|-----------------------------------------------------|
A|-----------------------------------------------------|
E|-----------------------------------------------------|

Parte 2 de 2
E|-----------------------------------------------------|
B|-0h2-3-3-3-3-3-3-3-3\2-------------------------------|
G|-----------------------2--2-4/6-4--------------------|
D|----------------------------------4/6----------------|
A|-----------------------------------------------------|
E|-----------------------------------------------------|

[Solo intro – Violão]

 Parte 1 de 2
E|-----8/9--9--7-5-5-5--4-4-4--------------------------|
B|---9-9/10-10-9-7-7-7--5-5-5--7h5--5h7----------------|
G|-9---------------------------7\6--6/7----------------|
D|-----------------------------------------------------|
A|-----------------------------------------------------|
E|-----------------------------------------------------|

Parte 2 de 2
E|-----8/9--9--7-5/4-4---------------------------------|
B|---9-9/10-10-9-7/5-5---------------------------------|
G|-9---------------------------------------------------|
D|-----------------------------------------------------|
A|-----------------------------------------------------|
E|-----------------------------------------------------|

[Pré-refrão]

Bm                     F#m11
E a gente foi se envolvendo
            E9
Perdendo o medo
 Bm                    F#m11
Não tinha lugar e nem hora
            E9 
Pra dar um beijo
                         D
Coração não tá mais aceitando
    Dm               A9  E
Só metade do seu: Te amo

[Refrão final]

          A9
É uma ciumeira atrás da outra
                     E 
Ter que dividir seu corpo e a sua boca
                   Bm
Tá bom que eu aceitei por um instante
                  D
A verdade é que amante 
                  E
Não quer ser amante

          A9
É uma ciumeira atrás da outra
                     E 
Ter que dividir seu corpo e a sua boca
                   Bm
Tá bom que eu aceitei por um instante
                  D
A verdade é que amante 
                  E
Não quer ser amante

          A9
É uma ciumeira atrás da outra
                     E 
Ter que dividir seu corpo e a sua boca
                   Bm
Tá bom que eu aceitei por um instante
                  D
A verdade é que amante 
                  E
Não quer ser amante
          A9
É uma ciumeira atrás da outra
Página 1 / 1

Letras e título
Acordes e artista

resetar configurações
OK