Cifra Club

Black Friday Cifra Club

Deixa Eu Te Amar (part. Maiara e Maraisa)

Marília Mendonça

Cifra: Principal (violão e guitarra)
tom: A
[Intro] A  C#m  D  E
        A  C#m  D  E

[Tab - Intro]

Parte 1 de 2

E|-----5-4--5-----------------------------------------|
B|---5--------5---5-5/7-------------------------------|
G|-6------------6-------7---7-6-4-4--4\2--------------|
D|------------------------7--------------4-2----------|
A|----------------------------------------------------|
E|----------------------------------------------------|

Parte 2 de 2

E|-----5-4--5-----------------------------------------|
B|---5--------5---5-5/7-------------------------------|
G|-6------------6-------7---7-6-4-4-------------------|
D|------------------------7---------4b5-2-------------|
A|----------------------------------------------------|
E|----------------------------------------------------|

[Primeira Parte]

     A
Porque você me olha assim
            D
Qual o seu medo?
    Dm               A
Alguém já te fez sofrer
            B             Bm  E4  E
Qual o seu medo, diz pra mim
    A
Se por amor já veio a sofrer
             D
E agora tem medo
     Dm            A
De amar e se envolver
            B             Bm  E4  E
Qual o seu medo, diz pra mim

[Pré-Refrão]

C#m                          F#m
    Sei que palavras não vão adiantar
C#m                          F#m
    Se o coração não quer acreditar
C#m                              F#m
    Confia em mim não, vai se arrepender
                D                    E
O que eu mais quero é não te ver sofrer

[Refrão]

A                     C#m
  Amor sincero tenho dentro de mim
        F#m               C#m
Pra te dar, é só você querer e arriscar
         D                  C#m
Pois não é ilusão, nem tão pouco atração
        Bm                   E  
É mais forte do que pode pensar
                         A
Não sabe o quanto já sofri por amor
         C#m
Conheço bem essa dor
         F#m                C#m
Que destrói, e causa insegurança demais
       D                        C#m
Pra você superar, tem que uma chance se dar
           Bm               E
E não ter medo de se apaixonar
              A
Deixa eu te amar

[Solo] C#m  D  E
       A  C#m  D  F#

[Tab - Solo]

Parte 1 de 3

E|-----5-4--5-----------------------------------------|
B|---5--------5---5-5/7-------------------------------|
G|-6------------6-------7---7-6-4-4--4\2--------------|
D|------------------------7--------------4-2----------|
A|----------------------------------------------------|
E|----------------------------------------------------|

Parte 2 de 3

E|-----5-4--5-----------------------------------------|
B|---5--------5---5-5/7-------------------------------|
G|-6------------6-------------------------------------|
D|----------------------------------------------------|
A|----------------------------------------------------|
E|----------------------------------------------------|

Parte 3 de 3

E|----------------------------------------------------|
B|-12b14r12-10----10-10-------------------------------|
G|-------------11-------11~---------------------------|
D|----------------------------------------------------|
A|----------------------------------------------------|
E|----------------------------------------------------|

[Refrão]

B                     D#m
  Amor sincero tenho dentro de mim
        G#m               D#m
Pra te dar, é só você querer e arriscar
         E                  D#m
Pois não é ilusão, nem tão pouco atração
        C#m                  F# 
É mais forte do que pode pensar
                         B
Não sabe o quanto já sofri por amor
         D#m
Conheço bem essa dor
         G#m               D#m
Que destrói, e causa insegurança demais
       E                        D#m
Pra você superar, tem que uma chance se dar
           C#m              F#
E não ter medo de se apaixonar
              B
Deixa eu te amar
  F#                      B
Ô, ô deixa, deixa eu te amar

[Final] B  C#m  D#m  E
        B  C#m  D#m  E  B
00:00 / 00:00
Outros vídeos desta música
Repetir
Outros vídeos desta música
Composição de Edson / Flavio
Colaboração e revisão:
  • Pietro Henrique"
6.292 exibições
    • ½ Tom
    • A
    • Bb
    • B
    • C
    • Db
    • D
    • Eb
    • E
    • F
    • F#
    • G
    • Ab
  • Adicionar à lista

    0 comentários

    Ver todos os comentários

    Conseguiu tocar?

    1 Tocaram 0 Ainda não

    Grave um vídeo tocando Deixa Eu Te Amar (part. Maiara e Maraisa) e nos envie!

    Entre para oCifra Club PRO

    Tenha acesso a benefícios exclusivos no App e no Site

    • Chega de anúncios

    • Prioridade de compra em lançamentos

    • Mais recursos no app do Afinador

    • Atendimento Prioritário

    • Descontos nos produtos Cifra Club

    • Ajude a produzir mais conteúdo

    00:00 / 00:00

    Cifra Club Pro

    Aproveite o Cifra Club com benefícios exclusivos e sem anúncios
    Cifra Club Pro
    Aproveite o Cifra Club com benefícios exclusivos e sem anúncios
    OK