Cifra Club

Black Friday Cifra Club

Fã Clube (part. Maiara e Maraísa)

Marília Mendonça

Cifra: Principal (violão e guitarra)
tom: Am
[Intro] Am  

[Tab - Solo Intro]

E|------------------------------------------|
B|-5-5-6-6/8-8p6-5--------------------------|
G|------------------------------------------|
D|------------------------------------------|
A|------------------------------------------|
E|------------------------------------------|

[Primeira Parte] 

Dm          F7M
Ah, se meus olhos tirassem fotos
               G
Das poses que você faz
             Dm7
Eu nem piscaria mais

     F7M                        G 
Seu beijo tem gosto de doce de leite
                   Em
Quanto mais eu te beijo
                    Am
Mais aumenta minha sede

[Segunda Parte]

                    Dm
Quando mais eu te provo
                 G
Mais ainda te aprovo
               Em
E pra mim é difícil dizer não
          Am
Pra esse vício
     Dm                G
Espetáculo te conhecer
              Am
Festival de amor e prazer

[Refrão] 

                        Dm          G
Meu coração fez um fã clube só pra você
          Em                         Am 
Oh, meu amor, eu vim aqui só pra te ver
                        Dm          G
Meu coração fez um fã clube só pra você
            Em                 Am 
Depois do show na cama que cê deu

                        Dm          G
Meu coração fez um fã clube só pra você
          Em                         Am
Oh, meu amor, eu vim aqui só pra te ver
                        Dm          G
Meu coração fez um fã clube só pra você
            Em                 Am 
Depois do show na cama que cê deu
                     Dm         G
Sua fã número um sou eu, sou eu
                  Em         Am
Sua fã número um sou eu, sou eu

[Solo] Dm  G  Em  Am

[Tab - Solo]

Parte 1 de 4
                     Dm
E|------------------------------------------|
B|-----8---8---8---8-8h10-------------------|
G|--/9---9---9---9--------------------------|
D|------------------------------------------|
A|------------------------------------------|
E|------------------------------------------|

Parte 2 de 4
                 G
E|--3/5-5-5-5--3-3h5p3----------------------|
B|------------------------------------------|
G|--4/5-5-5-5--4-4h5p4----------------------|
D|------------------------------------------|
A|------------------------------------------|
E|------------------------------------------|

Parte 3 de 4
                      Em
E|------7-7-7-7/8-7---8/10------------------|
B|------------------------------------------|
G|--/7----7-7-7/9-7-------------------------|
D|------------------------------------------|
A|------------------------------------------|
E|------------------------------------------|

Parte 4 de 4
       Am
E|--7--8-7h8p7------------------------------|
B|-------------10---------------------------|
G|----------------9-7/9---9/7p5--5h7--------|
D|------------------------------------------|
A|------------------------------------------|
E|------------------------------------------|

[Segunda Parte]

                    Dm
Quando mais eu te provo
                 G
Mais ainda te aprovo
               Em
E pra mim é difícil dizer não
          Am
Pra esse vício
     Dm                G
Espetáculo te conhecer
              Am
Festival de amor e prazer

[Refrão Final] 

                        Dm          G
Meu coração fez um fã clube só pra você
          Em                         Am 
Oh, meu amor, eu vim aqui só pra te ver
                        Dm          G
Meu coração fez um fã clube só pra você
            Em                 Am 
Depois do show na cama que cê deu

                        Dm          G
Meu coração fez um fã clube só pra você
          Em                         Am
Oh, meu amor, eu vim aqui só pra te ver
                        Dm          G
Meu coração fez um fã clube só pra você
            Em                 Am 
Depois do show na cama que cê deu
                     Dm         G
Sua fã número um sou eu, sou eu
                  Em         Am
Sua fã número um sou eu, sou eu
00:00 / 00:00
Outros vídeos desta música
Repetir
Outros vídeos desta música
Composição de Gustavo Martins / Isabella Resende / Kito / Rafaela Miranda
Colaboração e revisão:
  • Gustavo Zanandrez
18.438 exibições
    • ½ Tom
    • Am
    • Bbm
    • Bm
    • Cm
    • C#m
    • Dm
    • Ebm
    • Em
    • Fm
    • F#m
    • Gm
    • G#m
  • Adicionar à lista

    0 comentários

    Ver todos os comentários

    Conseguiu tocar?

    3 Tocaram 1 Ainda não

    Grave um vídeo tocando Fã Clube (part. Maiara e Maraísa) e nos envie!

    Entre para oCifra Club PRO

    Tenha acesso a benefícios exclusivos no App e no Site

    • Chega de anúncios

    • Prioridade de compra em lançamentos

    • Mais recursos no app do Afinador

    • Atendimento Prioritário

    • Descontos nos produtos Cifra Club

    • Ajude a produzir mais conteúdo

    00:00 / 00:00

    Cifra Club Pro

    Aproveite o Cifra Club com benefícios exclusivos e sem anúncios
    Cifra Club Pro
    Aproveite o Cifra Club com benefícios exclusivos e sem anúncios
    OK