Graveto

Marília Mendonça

Composição de: Edu Moura / Matheus Di Pádua / Normani Pelegrini
tom: A (forma dos acordes no tom de G ) Capotraste na 2ª casa
[Intro] Em7  D6  C9  Em7  D6  C9

[Tab - Intro]

E|---3-2-0h2p0------------------------------|
B|-3-----------3----------------------------|
G|------------------------------------------|
D|------------------------------------------|
A|------------------------------------------|
E|------------------------------------------|

E|-3---3---2---2---0---0---0---0------------|
B|---3---3---3---3---3---3---3---3----------|
G|-0-------4-------0------------------------|
D|-2-------0--------------------------------|
A|-----------------3------------------------|
E|------------------------------------------|

E|-3---3---2---2---0---0---0---0------------|
B|---3---3---3---3---3---3---3---3----------|
G|-0-------4-------0------------------------|
D|-2-------0--------------------------------|
A|-----------------3------------------------|
E|------------------------------------------|

[Primeira Parte]

Em7             D6         C9
    Vou ser sincero com você
                     Em7
Acho que pra mim já deu
           D6                C9
Faz um tempinho que não sou seu
                 Em7
Até a cama percebeu
         D6        Am7
Que esfriou demais
          C9
E seu toque não traz

Em7                     D6
    Não adianta por graveto
                     C9
Na fogueira que não pega mais
                    D
Não pega mais, não pega mais

[Refrão]

               C9
Você virou saudade 
                  G
Aqui dentro de casa
                        C9
Se eu te chamo pro colchão
                 G
Você foge pra sala
                  A7
E nem se importa mais saber 
           C7M
Do que eu sinto
                   D
Poucos metros quadrados
       C   G
Virou labirinto

               C
Você virou saudade 
                  G
Aqui dentro de casa
                        C
Se eu te chamo pro colchão
                 G
Você foge pra sala
                  A7
E nem se importa mais saber 
           C
Do que eu sinto
                   D
Poucos metros quadrados
       C   G
Virou labirinto

( C  G  C )

[Primeira Parte]

Em7             D6         C9
    Vou ser sincero com você
                     Em7
Acho que pra mim já deu
           D6                C9
Faz um tempinho que não sou seu
                 Em7
Até a cama percebeu
         D6        Am7
Que esfriou demais
          C9
E seu toque não traz

Em7                     D6
    Não adianta por graveto
                       C9
Numa fogueira que não pega mais
                    D
Não pega mais, não pega mais

[Refrão]

               C
Você virou saudade 
                  G
Aqui dentro de casa
                        C
Se eu te chamo pro colchão
                 G
Você foge pra sala
                  A7
E nem se importa mais saber 
           C
Do que eu sinto
                   D
Poucos metros quadrados
       C   G
Virou labirinto

               C
Você virou saudade 
                  G
Aqui dentro de casa
                        C
Se eu te chamo pro colchão
                 G
Você foge pra sala
                  A7
E nem se importa mais saber 
           C
Do que eu sinto
                   D
Poucos metros quadrados
       C   G
Virou labirinto

[Final] C  G  C  G
Página 1 / 1

Letras e título
Acordes e artista

resetar configurações
OK