Cifra Club

Hoje Somos Só Metade

Marília Mendonça

Cifra: Principal
exibições 127.025
Tom: B
E|--------------------------------------------|
B|---------4--5--7-9--7-7-4-4-4h5-4-----------|
G|----4/6----------------------------------4--|
D|--------------------------------------------|
A|--------------------------------------------|
E|--------------------------------------------|

              C#m
Não nos conhecemos mais
                                        G#m
Não vejo mais em você a pessoa que eu amei demais
                                    F#
O que tava dando certo agora deu errado
                                      G#
Não é que eu queira reviver nosso passado

                    C#m
A gente falava de amor
                                  G#m
Que pena que a nossa voz já se calou
                                      F#
E a cama que dormimos não tem mais calor
         G#
Dois estranhos perdidos
                            C#m
Tão pertos e distantes do amor

                                  G#m
Que pena que a nossa voz já se calou
                                      F#
E a cama que dormimos não tem mais calor
         G#
Dois estranhos perdidos

 C#m          A
Fomos dois viramos um
 B          G#m
Hoje somos só metade
    C#m        A
Chegamos em lugar nenhum
 B          G#m
Hoje somos só metade


E|--------------------------------------------|
B|---------4--5--7-9--7-7-4-4-4-4-4---5-4-----|
G|----4/6----------------------------------6--|
D|--------------------------------------------|
A|--------------------------------------------|
E|--------------------------------------------|
Acordes para:

    0 comentários

      mostrar mais comentários

      Conseguiu tocar?

      10tocaram0ainda não

      Grave um vídeo tocando Hoje Somos Só Metade e mande pra gente!

      00:00 / 00:00
      outros vídeos desta música
      repetirqualidadeautomática
      Outro vídeos desta música
        00:00 / 00:00
        automática
        OK