Cifra Club

Kinderfeld

Marilyn Manson

Tab de baixo: Versão 3
Riff 1 

G|----------------------|
D|----------------------|
A|-------6-6-6-6---4-6--|
E|--4-4----------4------|

Riff 2 

G|----------------------|
D|----------------------|
A|-------6-6-6-6-4-6-7--|
E|--4-4-----------------|

Riff 3 (Then I got my wings...)

Play this 3 times

G|-------------------------|
D|-------------------------|
A|-------------------------|
E|--4-4-4-4---------------|
Composição de Madonna Wayne Gacy / Marilyn Manson / Twiggy Ramirez
Colaboração e revisão:
  • Mateus Pedroso
3 exibições

0 comentários

Ver todos os comentários

Conseguiu tocar?

0 Tocaram 0 Ainda não

Grave um vídeo tocando Kinderfeld e nos envie!

00:00 / 00:00
Outros vídeos desta música
Repetir Qualidade Automático
Outros vídeos desta música
00:00 / 00:00
Automático

Cifra Club Pro

Aproveite o Cifra Club com benefícios exclusivos e sem anúncios
Cifra Club Pro
Aproveite o Cifra Club com benefícios exclusivos e sem anúncios
OK