Cifra Club

Kinderfeld

Marilyn Manson

Tab de baixo: Versão 2
				KINDERFELD

tabber:julien v
mail:*


4/4


VERSE 1 and intro
G|----------------:----------------|
D|----------------:----------------|
A|----6-----6-----:6-----6-----4-6-|
E|0-4-------------:--------0-4-----| x3
then
G|----------------:----------------|
D|----------------:----------------|
A|----6-----6-----:6-----6---4-6-7-|
E|0-4-------------:--------4-------|

CHORUS 
G|--------------------:----------------|
D|--------------------:----------------|
A|--------------------:----------------|
E|11---11---11---11-/-:7---*---*---7-\-| x3
then
G|----------------:-----------------|
D|----------------:-----------------|
A|----------------:-----------------|
E|6---6---6---6-\-:4---*---*-/-11---|

VERSE2 INTRO
G|----------------:----------------|
D|----------------:----------------|
A|----6-----6-----:6-----6-----4-6-|
E|0-4-------------:--------0-4-----| x2 and then play verse 1

BRIDGE 
G|----------------:----------------|
D|----------------:----------------|
A|----------------:------------4-6-|
E|0-4-6-----5-----:3-----1-0-4-----| x3
then
G|----------------:----------------|
D|----------------:----------------|
A|----------------:----------4-6-7-|
E|0-4-6-----5-----:3-----1-0-------|
Composição de Madonna Wayne Gacy / Marilyn Manson / Twiggy Ramirez
13 exibições

0 comentários

Ver todos os comentários

Conseguiu tocar?

0 Tocaram 0 Ainda não

Grave um vídeo tocando Kinderfeld e nos envie!

00:00 / 00:00
Outros vídeos desta música
Repetir Qualidade Automático
Outros vídeos desta música
00:00 / 00:00
Automático

Cifra Club Pro

Aproveite o Cifra Club com benefícios exclusivos e sem anúncios
Cifra Club Pro
Aproveite o Cifra Club com benefícios exclusivos e sem anúncios
OK